ISO-10303-21;
HEADER;
FILE_DESCRIPTION (( 'STEP AP203' ),
    '1' );
FILE_NAME ('Web Model 20219_20220.step',
    '2022-03-03T14:30:33',
    ( '' ),
    ( '' ),
    'SwSTEP 2.0',
    'SolidWorks 2021',
    '' );
FILE_SCHEMA (( 'CONFIG_CONTROL_DESIGN' ));
ENDSEC;

DATA;
#1 = DIRECTION ( 'NONE',  ( -0.000000000000000000, 0.000000000000000000, 1.000000000000000000 ) ) ;
#2 = EDGE_CURVE ( 'NONE', #210, #12, #87, .T. ) ;
#3 = SECURITY_CLASSIFICATION_LEVEL ( 'unclassified' ) ;
#4 = PERSON_AND_ORGANIZATION ( #224, #19 ) ;
#5 = VECTOR ( 'NONE', #71, 1000.000000000000000 ) ;
#6 = APPROVAL_STATUS ( 'not_yet_approved' ) ;
#7 = DIRECTION ( 'NONE',  ( 0.000000000000000000, -1.000000000000000000, 0.000000000000000000 ) ) ;
#8 = EDGE_CURVE ( 'NONE', #141, #12, #228, .T. ) ;
#9 = PERSON_AND_ORGANIZATION ( #224, #19 ) ;
#10 = CARTESIAN_POINT ( 'NONE',  ( -99.99999999999998579, -100.0000000000000000, 0.1270000000000000018 ) ) ;
#11 = PLANE ( 'NONE',  #214 ) ;
#12 = VERTEX_POINT ( 'NONE', #66 ) ;
#13 = EDGE_LOOP ( 'NONE', ( #212, #45, #122, #108 ) ) ;
#14 =( LENGTH_UNIT ( ) NAMED_UNIT ( * ) SI_UNIT ( .MILLI., .METRE. ) );
#15 = CARTESIAN_POINT ( 'NONE',  ( 0.000000000000000000, 0.000000000000000000, 0.000000000000000000 ) ) ;
#16 = ORIENTED_EDGE ( 'NONE', *, *, #90, .T. ) ;
#17 = LINE ( 'NONE', #34, #145 ) ;
#18 = DIRECTION ( 'NONE',  ( 1.000000000000000000, 0.000000000000000000, 0.000000000000000000 ) ) ;
#19 = ORGANIZATION ( 'UNSPECIFIED', 'UNSPECIFIED', '' ) ;
#20 = DIRECTION ( 'NONE',  ( 1.000000000000000000, 0.000000000000000000, -0.000000000000000000 ) ) ;
#21 = EDGE_LOOP ( 'NONE', ( #47, #190, #171, #16 ) ) ;
#22 = CALENDAR_DATE ( 2022, 3, 3 ) ;
#23 = ORIENTED_EDGE ( 'NONE', *, *, #114, .T. ) ;
#24 = PERSON_AND_ORGANIZATION ( #224, #19 ) ;
#25 = APPLICATION_CONTEXT ( 'configuration controlled 3d designs of mechanical parts and assemblies' ) ;
#26 = ORIENTED_EDGE ( 'NONE', *, *, #219, .T. ) ;
#27 = CARTESIAN_POINT ( 'NONE',  ( 100.0000000000000142, 100.0000000000000000, 0.000000000000000000 ) ) ;
#28 = VECTOR ( 'NONE', #7, 1000.000000000000000 ) ;
#29 = ORIENTED_EDGE ( 'NONE', *, *, #143, .F. ) ;
#30 = LINE ( 'NONE', #110, #170 ) ;
#31 = CARTESIAN_POINT ( 'NONE',  ( -99.99999999999998579, 100.0000000000000000, 0.1270000000000000018 ) ) ;
#32 = ORIENTED_EDGE ( 'NONE', *, *, #204, .T. ) ;
#33 = CC_DESIGN_DATE_AND_TIME_ASSIGNMENT ( #46, #222, ( #94 ) ) ;
#34 = CARTESIAN_POINT ( 'NONE',  ( -99.99999999999998579, 100.0000000000000000, 0.000000000000000000 ) ) ;
#35 = CARTESIAN_POINT ( 'NONE',  ( 100.0000000000000142, -100.0000000000000000, 0.1270000000000000018 ) ) ;
#36 = FACE_OUTER_BOUND ( 'NONE', #225, .T. ) ;
#37 = AXIS2_PLACEMENT_3D ( 'NONE', #201, #57, #237 ) ;
#38 = APPROVAL ( #63, 'UNSPECIFIED' ) ;
#39 = DATE_AND_TIME ( #103, #50 ) ;
#40 = PERSON_AND_ORGANIZATION ( #224, #19 ) ;
#41 = PERSON_AND_ORGANIZATION_ROLE ( 'design_owner' ) ;
#42 = ADVANCED_FACE ( 'NONE', ( #125 ), #193, .F. ) ;
#43 = ADVANCED_BREP_SHAPE_REPRESENTATION ( 'Web Model 20219_20220', ( #150, #223 ), #236 ) ;
#44 = COORDINATED_UNIVERSAL_TIME_OFFSET ( 5, 0, .BEHIND. ) ;
#45 = ORIENTED_EDGE ( 'NONE', *, *, #8, .F. ) ;
#46 = DATE_AND_TIME ( #209, #220 ) ;
#47 = ORIENTED_EDGE ( 'NONE', *, *, #118, .T. ) ;
#48 = APPROVAL_PERSON_ORGANIZATION ( #121, #53, #153 ) ;
#49 = LINE ( 'NONE', #82, #5 ) ;
#50 = LOCAL_TIME ( 9, 30, 33.00000000000000000, #44 ) ;
#51 = DIRECTION ( 'NONE',  ( 1.000000000000000000, 0.000000000000000000, 0.000000000000000000 ) ) ;
#52 = ORIENTED_EDGE ( 'NONE', *, *, #2, .F. ) ;
#53 = APPROVAL ( #189, 'UNSPECIFIED' ) ;
#54 = CARTESIAN_POINT ( 'NONE',  ( -99.99999999999998579, -100.0000000000000000, 0.000000000000000000 ) ) ;
#55 = PRODUCT_DEFINITION_SHAPE ( 'NONE', 'NONE',  #85 ) ;
#56 = CARTESIAN_POINT ( 'NONE',  ( 100.0000000000000142, 100.0000000000000000, 0.1270000000000000018 ) ) ;
#57 = DIRECTION ( 'NONE',  ( 0.000000000000000000, 1.000000000000000000, 0.000000000000000000 ) ) ;
#58 = CARTESIAN_POINT ( 'NONE',  ( -99.99999999999998579, -100.0000000000000000, 0.1270000000000000018 ) ) ;
#59 = ADVANCED_FACE ( 'NONE', ( #106 ), #11, .T. ) ;
#60 = CC_DESIGN_SECURITY_CLASSIFICATION ( #94, ( #181 ) ) ;
#61 = AXIS2_PLACEMENT_3D ( 'NONE', #183, #20, #112 ) ;
#62 = CALENDAR_DATE ( 2022, 3, 3 ) ;
#63 = APPROVAL_STATUS ( 'not_yet_approved' ) ;
#64 = DIRECTION ( 'NONE',  ( -0.000000000000000000, 1.000000000000000000, -0.000000000000000000 ) ) ;
#65 = APPROVAL_DATE_TIME ( #39, #38 ) ;
#66 = CARTESIAN_POINT ( 'NONE',  ( -99.99999999999998579, -100.0000000000000000, 0.000000000000000000 ) ) ;
#67 = CARTESIAN_POINT ( 'NONE',  ( 100.0000000000000142, 100.0000000000000000, 0.1270000000000000018 ) ) ;
#68 = LOCAL_TIME ( 9, 30, 33.00000000000000000, #226 ) ;
#69 = ORIENTED_EDGE ( 'NONE', *, *, #198, .F. ) ;
#70 = VECTOR ( 'NONE', #142, 1000.000000000000000 ) ;
#71 = DIRECTION ( 'NONE',  ( -0.000000000000000000, 1.000000000000000000, -0.000000000000000000 ) ) ;
#72 = FACE_OUTER_BOUND ( 'NONE', #188, .T. ) ;
#73 = AXIS2_PLACEMENT_3D ( 'NONE', #31, #180, #217 ) ;
#74 = EDGE_CURVE ( 'NONE', #176, #141, #128, .T. ) ;
#75 = CARTESIAN_POINT ( 'NONE',  ( -99.99999999999998579, 100.0000000000000000, 0.000000000000000000 ) ) ;
#76 = UNCERTAINTY_MEASURE_WITH_UNIT (LENGTH_MEASURE( 1.000000000000000082E-05 ), #14, 'distance_accuracy_value', 'NONE');
#77 = CC_DESIGN_PERSON_AND_ORGANIZATION_ASSIGNMENT ( #4, #155, ( #94 ) ) ;
#78 = DIRECTION ( 'NONE',  ( 1.000000000000000000, 0.000000000000000000, 0.000000000000000000 ) ) ;
#79 = LOCAL_TIME ( 9, 30, 33.00000000000000000, #169 ) ;
#80 = PERSON_AND_ORGANIZATION ( #224, #19 ) ;
#81 = DATE_TIME_ROLE ( 'creation_date' ) ;
#82 = CARTESIAN_POINT ( 'NONE',  ( 100.0000000000000142, 100.0000000000000000, 0.1270000000000000018 ) ) ;
#83 = PERSON_AND_ORGANIZATION_ROLE ( 'creator' ) ;
#84 = EDGE_LOOP ( 'NONE', ( #26, #111, #93, #175 ) ) ;
#85 = PRODUCT_DEFINITION ( 'UNKNOWN', '', #181, #99 ) ;
#86 = LINE ( 'NONE', #233, #70 ) ;
#87 = LINE ( 'NONE', #127, #28 ) ;
#88 = AXIS2_PLACEMENT_3D ( 'NONE', #67, #144, #89 ) ;
#89 = DIRECTION ( 'NONE',  ( 0.000000000000000000, 0.000000000000000000, 1.000000000000000000 ) ) ;
#90 = EDGE_CURVE ( 'NONE', #200, #159, #86, .T. ) ;
#91 = PRODUCT ( 'Web Model 20219_20220', 'Web Model 20219_20220', '', ( #205 ) ) ;
#92 = APPLICATION_PROTOCOL_DEFINITION ( 'international standard', 'config_control_design', 1994, #25 ) ;
#93 = ORIENTED_EDGE ( 'NONE', *, *, #204, .F. ) ;
#94 = SECURITY_CLASSIFICATION ( '', '', #3 ) ;
#95 = LINE ( 'NONE', #56, #196 ) ;
#96 = VECTOR ( 'NONE', #64, 1000.000000000000000 ) ;
#97 = FACE_OUTER_BOUND ( 'NONE', #84, .T. ) ;
#98 = CARTESIAN_POINT ( 'NONE',  ( -99.99999999999998579, -100.0000000000000000, 0.1270000000000000018 ) ) ;
#99 = DESIGN_CONTEXT ( 'detailed design', #133, 'design' ) ;
#100 = CC_DESIGN_PERSON_AND_ORGANIZATION_ASSIGNMENT ( #119, #206, ( #85 ) ) ;
#101 = PERSON_AND_ORGANIZATION_ROLE ( 'design_supplier' ) ;
#102 = ORIENTED_EDGE ( 'NONE', *, *, #168, .T. ) ;
#103 = CALENDAR_DATE ( 2022, 3, 3 ) ;
#104 = ORIENTED_EDGE ( 'NONE', *, *, #143, .T. ) ;
#105 = CC_DESIGN_PERSON_AND_ORGANIZATION_ASSIGNMENT ( #9, #83, ( #181 ) ) ;
#106 = FACE_OUTER_BOUND ( 'NONE', #146, .T. ) ;
#107 = VECTOR ( 'NONE', #216, 1000.000000000000000 ) ;
#108 = ORIENTED_EDGE ( 'NONE', *, *, #198, .T. ) ;
#109 = CARTESIAN_POINT ( 'NONE',  ( -99.99999999999998579, 100.0000000000000000, 0.1270000000000000018 ) ) ;
#110 = CARTESIAN_POINT ( 'NONE',  ( -99.99999999999998579, 100.0000000000000000, 0.1270000000000000018 ) ) ;
#111 = ORIENTED_EDGE ( 'NONE', *, *, #90, .F. ) ;
#112 = DIRECTION ( 'NONE',  ( -0.000000000000000000, 0.000000000000000000, -1.000000000000000000 ) ) ;
#113 = DIRECTION ( 'NONE',  ( 1.000000000000000000, 0.000000000000000000, 0.000000000000000000 ) ) ;
#114 = EDGE_CURVE ( 'NONE', #200, #231, #49, .T. ) ;
#115 = VECTOR ( 'NONE', #160, 1000.000000000000000 ) ;
#116 = CARTESIAN_POINT ( 'NONE',  ( 100.0000000000000142, -100.0000000000000000, 0.000000000000000000 ) ) ;
#117 = COORDINATED_UNIVERSAL_TIME_OFFSET ( 5, 0, .BEHIND. ) ;
#118 = EDGE_CURVE ( 'NONE', #159, #158, #154, .T. ) ;
#119 = PERSON_AND_ORGANIZATION ( #224, #19 ) ;
#120 = APPLICATION_PROTOCOL_DEFINITION ( 'international standard', 'config_control_design', 1994, #133 ) ;
#121 = PERSON_AND_ORGANIZATION ( #224, #19 ) ;
#122 = ORIENTED_EDGE ( 'NONE', *, *, #74, .F. ) ;
#123 = ADVANCED_FACE ( 'NONE', ( #139 ), #208, .F. ) ;
#124 = DATE_AND_TIME ( #185, #79 ) ;
#125 = FACE_OUTER_BOUND ( 'NONE', #21, .T. ) ;
#126 = CC_DESIGN_APPROVAL ( #211, ( #94 ) ) ;
#127 = CARTESIAN_POINT ( 'NONE',  ( -99.99999999999998579, 100.0000000000000000, 0.000000000000000000 ) ) ;
#128 = LINE ( 'NONE', #109, #115 ) ;
#129 = CARTESIAN_POINT ( 'NONE',  ( -99.99999999999998579, 100.0000000000000000, 0.1270000000000000018 ) ) ;
#130 = DIRECTION ( 'NONE',  ( -0.000000000000000000, -0.000000000000000000, -1.000000000000000000 ) ) ;
#131 = PLANE ( 'NONE',  #37 ) ;
#132 = PLANE ( 'NONE',  #73 ) ;
#133 = APPLICATION_CONTEXT ( 'configuration controlled 3d designs of mechanical parts and assemblies' ) ;
#134 = SHAPE_DEFINITION_REPRESENTATION ( #55, #43 ) ;
#135 = APPROVAL_PERSON_ORGANIZATION ( #24, #38, #207 ) ;
#136 = CLOSED_SHELL ( 'NONE', ( #42, #161, #123, #194, #59, #232 ) ) ;
#137 = APPROVAL_ROLE ( '' ) ;
#138 = EDGE_CURVE ( 'NONE', #231, #176, #218, .T. ) ;
#139 = FACE_OUTER_BOUND ( 'NONE', #13, .T. ) ;
#140 = PERSON_AND_ORGANIZATION ( #224, #19 ) ;
#141 = VERTEX_POINT ( 'NONE', #58 ) ;
#142 = DIRECTION ( 'NONE',  ( -0.000000000000000000, -0.000000000000000000, -1.000000000000000000 ) ) ;
#143 = EDGE_CURVE ( 'NONE', #158, #210, #17, .T. ) ;
#144 = DIRECTION ( 'NONE',  ( -1.000000000000000000, 0.000000000000000000, 0.000000000000000000 ) ) ;
#145 = VECTOR ( 'NONE', #199, 1000.000000000000000 ) ;
#146 = EDGE_LOOP ( 'NONE', ( #23, #215, #229, #32 ) ) ;
#147 = CC_DESIGN_PERSON_AND_ORGANIZATION_ASSIGNMENT ( #140, #101, ( #181 ) ) ;
#148 = CARTESIAN_POINT ( 'NONE',  ( 100.0000000000000142, 100.0000000000000000, 0.000000000000000000 ) ) ;
#149 =( NAMED_UNIT ( * ) SI_UNIT ( $, .STERADIAN. ) SOLID_ANGLE_UNIT ( ) );
#150 = MANIFOLD_SOLID_BREP ( 'Boss-Extrude1', #136 ) ;
#151 = CARTESIAN_POINT ( 'NONE',  ( 100.0000000000000142, 100.0000000000000000, 0.1270000000000000018 ) ) ;
#152 = AXIS2_PLACEMENT_3D ( 'NONE', #163, #1, #78 ) ;
#153 = APPROVAL_ROLE ( '' ) ;
#154 = LINE ( 'NONE', #27, #96 ) ;
#155 = PERSON_AND_ORGANIZATION_ROLE ( 'classification_officer' ) ;
#156 = DIRECTION ( 'NONE',  ( -0.000000000000000000, -0.000000000000000000, -1.000000000000000000 ) ) ;
#157 = APPROVAL_DATE_TIME ( #172, #53 ) ;
#158 = VERTEX_POINT ( 'NONE', #148 ) ;
#159 = VERTEX_POINT ( 'NONE', #116 ) ;
#160 = DIRECTION ( 'NONE',  ( 0.000000000000000000, -1.000000000000000000, 0.000000000000000000 ) ) ;
#161 = ADVANCED_FACE ( 'NONE', ( #72 ), #132, .F. ) ;
#162 = DIRECTION ( 'NONE',  ( 0.000000000000000000, 0.000000000000000000, 1.000000000000000000 ) ) ;
#163 = CARTESIAN_POINT ( 'NONE',  ( 0.000000000000000000, 0.000000000000000000, 0.000000000000000000 ) ) ;
#164 = VECTOR ( 'NONE', #177, 1000.000000000000000 ) ;
#165 = DIRECTION ( 'NONE',  ( -0.000000000000000000, -0.000000000000000000, -1.000000000000000000 ) ) ;
#166 = VECTOR ( 'NONE', #156, 1000.000000000000000 ) ;
#167 = PLANE ( 'NONE',  #152 ) ;
#168 = EDGE_CURVE ( 'NONE', #231, #158, #95, .T. ) ;
#169 = COORDINATED_UNIVERSAL_TIME_OFFSET ( 5, 0, .BEHIND. ) ;
#170 = VECTOR ( 'NONE', #130, 1000.000000000000000 ) ;
#171 = ORIENTED_EDGE ( 'NONE', *, *, #114, .F. ) ;
#172 = DATE_AND_TIME ( #22, #68 ) ;
#173 = ORIENTED_EDGE ( 'NONE', *, *, #118, .F. ) ;
#174 = VECTOR ( 'NONE', #113, 1000.000000000000000 ) ;
#175 = ORIENTED_EDGE ( 'NONE', *, *, #8, .T. ) ;
#176 = VERTEX_POINT ( 'NONE', #234 ) ;
#177 = DIRECTION ( 'NONE',  ( 1.000000000000000000, 0.000000000000000000, 0.000000000000000000 ) ) ;
#178 = CC_DESIGN_PERSON_AND_ORGANIZATION_ASSIGNMENT ( #80, #41, ( #91 ) ) ;
#179 = ORIENTED_EDGE ( 'NONE', *, *, #219, .F. ) ;
#180 = DIRECTION ( 'NONE',  ( 0.000000000000000000, -1.000000000000000000, 0.000000000000000000 ) ) ;
#181 = PRODUCT_DEFINITION_FORMATION_WITH_SPECIFIED_SOURCE ( 'ANY', '', #91, .NOT_KNOWN. ) ;
#182 = CC_DESIGN_APPROVAL ( #38, ( #85 ) ) ;
#183 = CARTESIAN_POINT ( 'NONE',  ( -99.99999999999998579, 100.0000000000000000, 0.1270000000000000018 ) ) ;
#184 = CC_DESIGN_DATE_AND_TIME_ASSIGNMENT ( #187, #81, ( #85 ) ) ;
#185 = CALENDAR_DATE ( 2022, 3, 3 ) ;
#186 = COORDINATED_UNIVERSAL_TIME_OFFSET ( 5, 0, .BEHIND. ) ;
#187 = DATE_AND_TIME ( #62, #230 ) ;
#188 = EDGE_LOOP ( 'NONE', ( #104, #69, #197, #102 ) ) ;
#189 = APPROVAL_STATUS ( 'not_yet_approved' ) ;
#190 = ORIENTED_EDGE ( 'NONE', *, *, #168, .F. ) ;
#191 = APPROVAL_DATE_TIME ( #124, #211 ) ;
#192 = CC_DESIGN_APPROVAL ( #53, ( #181 ) ) ;
#193 = PLANE ( 'NONE',  #88 ) ;
#194 = ADVANCED_FACE ( 'NONE', ( #97 ), #131, .F. ) ;
#195 = CARTESIAN_POINT ( 'NONE',  ( 0.000000000000000000, 0.000000000000000000, 0.1270000000000000018 ) ) ;
#196 = VECTOR ( 'NONE', #165, 1000.000000000000000 ) ;
#197 = ORIENTED_EDGE ( 'NONE', *, *, #138, .F. ) ;
#198 = EDGE_CURVE ( 'NONE', #176, #210, #30, .T. ) ;
#199 = DIRECTION ( 'NONE',  ( -1.000000000000000000, -0.000000000000000000, -0.000000000000000000 ) ) ;
#200 = VERTEX_POINT ( 'NONE', #35 ) ;
#201 = CARTESIAN_POINT ( 'NONE',  ( -99.99999999999998579, -100.0000000000000000, 0.1270000000000000018 ) ) ;
#202 = APPROVAL_PERSON_ORGANIZATION ( #40, #211, #137 ) ;
#203 = LINE ( 'NONE', #98, #174 ) ;
#204 = EDGE_CURVE ( 'NONE', #141, #200, #203, .T. ) ;
#205 = MECHANICAL_CONTEXT ( 'NONE', #25, 'mechanical' ) ;
#206 = PERSON_AND_ORGANIZATION_ROLE ( 'creator' ) ;
#207 = APPROVAL_ROLE ( '' ) ;
#208 = PLANE ( 'NONE',  #61 ) ;
#209 = CALENDAR_DATE ( 2022, 3, 3 ) ;
#210 = VERTEX_POINT ( 'NONE', #75 ) ;
#211 = APPROVAL ( #6, 'UNSPECIFIED' ) ;
#212 = ORIENTED_EDGE ( 'NONE', *, *, #2, .T. ) ;
#213 = DIRECTION ( 'NONE',  ( -0.000000000000000000, 0.000000000000000000, 1.000000000000000000 ) ) ;
#214 = AXIS2_PLACEMENT_3D ( 'NONE', #195, #213, #51 ) ;
#215 = ORIENTED_EDGE ( 'NONE', *, *, #138, .T. ) ;
#216 = DIRECTION ( 'NONE',  ( -1.000000000000000000, -0.000000000000000000, -0.000000000000000000 ) ) ;
#217 = DIRECTION ( 'NONE',  ( 0.000000000000000000, -0.000000000000000000, -1.000000000000000000 ) ) ;
#218 = LINE ( 'NONE', #129, #107 ) ;
#219 = EDGE_CURVE ( 'NONE', #12, #159, #221, .T. ) ;
#220 = LOCAL_TIME ( 9, 30, 33.00000000000000000, #186 ) ;
#221 = LINE ( 'NONE', #54, #164 ) ;
#222 = DATE_TIME_ROLE ( 'classification_date' ) ;
#223 = AXIS2_PLACEMENT_3D ( 'NONE', #15, #162, #18 ) ;
#224 = PERSON ( 'UNSPECIFIED', 'UNSPECIFIED', 'UNSPECIFIED', ('UNSPECIFIED'), ('UNSPECIFIED'), ('UNSPECIFIED') ) ;
#225 = EDGE_LOOP ( 'NONE', ( #173, #179, #52, #29 ) ) ;
#226 = COORDINATED_UNIVERSAL_TIME_OFFSET ( 5, 0, .BEHIND. ) ;
#227 = PRODUCT_RELATED_PRODUCT_CATEGORY ( 'detail', '', ( #91 ) ) ;
#228 = LINE ( 'NONE', #10, #166 ) ;
#229 = ORIENTED_EDGE ( 'NONE', *, *, #74, .T. ) ;
#230 = LOCAL_TIME ( 9, 30, 33.00000000000000000, #117 ) ;
#231 = VERTEX_POINT ( 'NONE', #151 ) ;
#232 = ADVANCED_FACE ( 'NONE', ( #36 ), #167, .F. ) ;
#233 = CARTESIAN_POINT ( 'NONE',  ( 100.0000000000000142, -100.0000000000000000, 0.1270000000000000018 ) ) ;
#234 = CARTESIAN_POINT ( 'NONE',  ( -99.99999999999998579, 100.0000000000000000, 0.1270000000000000018 ) ) ;
#235 =( NAMED_UNIT ( * ) PLANE_ANGLE_UNIT ( ) SI_UNIT ( $, .RADIAN. ) );
#236 =( GEOMETRIC_REPRESENTATION_CONTEXT ( 3 ) GLOBAL_UNCERTAINTY_ASSIGNED_CONTEXT ( ( #76 ) ) GLOBAL_UNIT_ASSIGNED_CONTEXT ( ( #14, #235, #149 ) ) REPRESENTATION_CONTEXT ( 'NONE', 'WORKASPACE' ) );
#237 = DIRECTION ( 'NONE',  ( 0.000000000000000000, -0.000000000000000000, 1.000000000000000000 ) ) ;
ENDSEC;
END-ISO-10303-21;
