ISO-10303-21;
HEADER;
FILE_DESCRIPTION (( 'STEP AP203' ),
    '1' );
FILE_NAME ('Web Model 65924.STEP',
    '2017-01-31T19:32:00',
    ( '' ),
    ( '' ),
    'SwSTEP 2.0',
    'SolidWorks 2016',
    '' );
FILE_SCHEMA (( 'CONFIG_CONTROL_DESIGN' ));
ENDSEC;

DATA;
#1 = CARTESIAN_POINT ( 'NONE',  ( 0.0000000000000000000, 0.0000000000000000000, 0.0000000000000000000 ) ) ;
#2 = ADVANCED_FACE ( 'NONE', ( #103 ), #18, .T. ) ;
#3 = LINE ( 'NONE', #147, #72 ) ;
#4 = PRODUCT_RELATED_PRODUCT_CATEGORY ( 'detail', '', ( #143 ) ) ;
#5 =( LENGTH_UNIT ( ) NAMED_UNIT ( * ) SI_UNIT ( .MILLI., .METRE. ) );
#6 = DIRECTION ( 'NONE',  ( 0.0000000000000000000, 0.0000000000000000000, 1.000000000000000000 ) ) ;
#7 = SHAPE_DEFINITION_REPRESENTATION ( #104, #25 ) ;
#8 = CALENDAR_DATE ( 2017, 31, 1 ) ;
#9 = APPROVAL_DATE_TIME ( #100, #172 ) ;
#10 = ADVANCED_FACE ( 'NONE', ( #140 ), #91, .F. ) ;
#11 = PERSON_AND_ORGANIZATION ( #120, #56 ) ;
#12 = ORIENTED_EDGE ( 'NONE', *, *, #122, .T. ) ;
#13 = CARTESIAN_POINT ( 'NONE',  ( 0.0000000000000000000, 0.0000000000000000000, 0.0000000000000000000 ) ) ;
#14 = AXIS2_PLACEMENT_3D ( 'NONE', #146, #6, #95 ) ;
#15 = ADVANCED_FACE ( 'NONE', ( #134 ), #90, .T. ) ;
#16 = CARTESIAN_POINT ( 'NONE',  ( 10.00000000000000000, 1.224646799147353300E-015, 2.000000000000000000 ) ) ;
#17 = PERSON_AND_ORGANIZATION ( #120, #56 ) ;
#18 = PLANE ( 'NONE',  #133 ) ;
#19 = PERSON_AND_ORGANIZATION_ROLE ( 'design_supplier' ) ;
#20 = AXIS2_PLACEMENT_3D ( 'NONE', #53, #109, #162 ) ;
#21 = DATE_TIME_ROLE ( 'classification_date' ) ;
#22 = AXIS2_PLACEMENT_3D ( 'NONE', #1, #88, #28 ) ;
#23 = DATE_AND_TIME ( #161, #87 ) ;
#24 = CIRCLE ( 'NONE', #75, 10.00000000000000000 ) ;
#25 = ADVANCED_BREP_SHAPE_REPRESENTATION ( 'Web Model 65924', ( #132, #14 ), #108 ) ;
#26 = DIRECTION ( 'NONE',  ( -0.0000000000000000000, -0.0000000000000000000, -1.000000000000000000 ) ) ;
#27 = CC_DESIGN_PERSON_AND_ORGANIZATION_ASSIGNMENT ( #17, #19, ( #144 ) ) ;
#28 = DIRECTION ( 'NONE',  ( 1.000000000000000000, 0.0000000000000000000, -0.0000000000000000000 ) ) ;
#29 = CYLINDRICAL_SURFACE ( 'NONE', #96, 10.00000000000000000 ) ;
#30 = CARTESIAN_POINT ( 'NONE',  ( 0.0000000000000000000, 0.0000000000000000000, 2.000000000000000000 ) ) ;
#31 = ORIENTED_EDGE ( 'NONE', *, *, #64, .T. ) ;
#32 = DATE_TIME_ROLE ( 'creation_date' ) ;
#33 = APPLICATION_CONTEXT ( 'configuration controlled 3d designs of mechanical parts and assemblies' ) ;
#34 = CALENDAR_DATE ( 2017, 31, 1 ) ;
#35 = ORIENTED_EDGE ( 'NONE', *, *, #45, .T. ) ;
#36 = ORIENTED_EDGE ( 'NONE', *, *, #175, .T. ) ;
#37 = DIRECTION ( 'NONE',  ( -1.000000000000000000, 0.0000000000000000000, 0.0000000000000000000 ) ) ;
#38 = APPROVAL ( #114, 'UNSPECIFIED' ) ;
#39 = DIRECTION ( 'NONE',  ( 1.000000000000000000, 0.0000000000000000000, 0.0000000000000000000 ) ) ;
#40 = DIRECTION ( 'NONE',  ( -0.0000000000000000000, -0.0000000000000000000, -1.000000000000000000 ) ) ;
#41 = CARTESIAN_POINT ( 'NONE',  ( 0.0000000000000000000, 0.0000000000000000000, 2.000000000000000000 ) ) ;
#42 = AXIS2_PLACEMENT_3D ( 'NONE', #41, #40, #76 ) ;
#43 = CIRCLE ( 'NONE', #20, 10.00000000000000000 ) ;
#44 = PERSON_AND_ORGANIZATION_ROLE ( 'creator' ) ;
#45 = EDGE_CURVE ( 'NONE', #57, #98, #123, .T. ) ;
#46 = PERSON_AND_ORGANIZATION ( #120, #56 ) ;
#47 = ORIENTED_EDGE ( 'NONE', *, *, #60, .F. ) ;
#48 = CC_DESIGN_PERSON_AND_ORGANIZATION_ASSIGNMENT ( #65, #168, ( #143 ) ) ;
#49 = PERSON_AND_ORGANIZATION ( #120, #56 ) ;
#50 = SECURITY_CLASSIFICATION ( '', '', #149 ) ;
#51 = AXIS2_PLACEMENT_3D ( 'NONE', #165, #55, #62 ) ;
#52 = ORIENTED_EDGE ( 'NONE', *, *, #60, .T. ) ;
#53 = CARTESIAN_POINT ( 'NONE',  ( 0.0000000000000000000, 0.0000000000000000000, 2.000000000000000000 ) ) ;
#54 = CARTESIAN_POINT ( 'NONE',  ( -10.00000000000000000, 0.0000000000000000000, 0.0000000000000000000 ) ) ;
#55 = DIRECTION ( 'NONE',  ( 0.0000000000000000000, 0.0000000000000000000, 1.000000000000000000 ) ) ;
#56 = ORGANIZATION ( 'UNSPECIFIED', 'UNSPECIFIED', '' ) ;
#57 = VERTEX_POINT ( 'NONE', #63 ) ;
#58 = ORIENTED_EDGE ( 'NONE', *, *, #45, .F. ) ;
#59 = ORIENTED_EDGE ( 'NONE', *, *, #99, .F. ) ;
#60 = EDGE_CURVE ( 'NONE', #57, #61, #170, .T. ) ;
#61 = VERTEX_POINT ( 'NONE', #145 ) ;
#62 = DIRECTION ( 'NONE',  ( 1.000000000000000000, 0.0000000000000000000, 0.0000000000000000000 ) ) ;
#63 = CARTESIAN_POINT ( 'NONE',  ( 10.00000000000000000, 1.224646799147353300E-015, 2.000000000000000000 ) ) ;
#64 = EDGE_CURVE ( 'NONE', #61, #57, #43, .T. ) ;
#65 = PERSON_AND_ORGANIZATION ( #120, #56 ) ;
#66 = CARTESIAN_POINT ( 'NONE',  ( 0.0000000000000000000, 0.0000000000000000000, 2.000000000000000000 ) ) ;
#67 = DIRECTION ( 'NONE',  ( 0.0000000000000000000, 0.0000000000000000000, 1.000000000000000000 ) ) ;
#68 = DIRECTION ( 'NONE',  ( -0.0000000000000000000, -0.0000000000000000000, -1.000000000000000000 ) ) ;
#69 =( NAMED_UNIT ( * ) SI_UNIT ( $, .STERADIAN. ) SOLID_ANGLE_UNIT ( ) );
#70 = COORDINATED_UNIVERSAL_TIME_OFFSET ( 5, 0, .BEHIND. ) ;
#71 = COORDINATED_UNIVERSAL_TIME_OFFSET ( 5, 0, .BEHIND. ) ;
#72 = VECTOR ( 'NONE', #68, 1000.000000000000000 ) ;
#73 = FACE_OUTER_BOUND ( 'NONE', #157, .T. ) ;
#74 = LOCAL_TIME ( 14, 32, 0.0000000000000000000, #148 ) ;
#75 = AXIS2_PLACEMENT_3D ( 'NONE', #13, #124, #163 ) ;
#76 = DIRECTION ( 'NONE',  ( -1.000000000000000000, 0.0000000000000000000, 0.0000000000000000000 ) ) ;
#77 = EDGE_LOOP ( 'NONE', ( #31, #52 ) ) ;
#78 = COORDINATED_UNIVERSAL_TIME_OFFSET ( 5, 0, .BEHIND. ) ;
#79 = APPROVAL_STATUS ( 'not_yet_approved' ) ;
#80 = APPROVAL_PERSON_ORGANIZATION ( #150, #107, #139 ) ;
#81 = ORIENTED_EDGE ( 'NONE', *, *, #64, .F. ) ;
#82 = PERSON_AND_ORGANIZATION_ROLE ( 'classification_officer' ) ;
#83 = CC_DESIGN_APPROVAL ( #38, ( #86 ) ) ;
#84 = APPROVAL_DATE_TIME ( #23, #107 ) ;
#85 = PERSON_AND_ORGANIZATION ( #120, #56 ) ;
#86 = PRODUCT_DEFINITION ( 'UNKNOWN', '', #144, #158 ) ;
#87 = LOCAL_TIME ( 14, 32, 0.0000000000000000000, #78 ) ;
#88 = DIRECTION ( 'NONE',  ( 0.0000000000000000000, 0.0000000000000000000, 1.000000000000000000 ) ) ;
#89 = DIRECTION ( 'NONE',  ( -0.0000000000000000000, -0.0000000000000000000, -1.000000000000000000 ) ) ;
#90 = CYLINDRICAL_SURFACE ( 'NONE', #42, 10.00000000000000000 ) ;
#91 = PLANE ( 'NONE',  #22 ) ;
#92 = UNCERTAINTY_MEASURE_WITH_UNIT (LENGTH_MEASURE( 1.000000000000000100E-005 ), #5, 'distance_accuracy_value', 'NONE');
#93 = CC_DESIGN_PERSON_AND_ORGANIZATION_ASSIGNMENT ( #11, #113, ( #86 ) ) ;
#94 = VERTEX_POINT ( 'NONE', #54 ) ;
#95 = DIRECTION ( 'NONE',  ( 1.000000000000000000, 0.0000000000000000000, 0.0000000000000000000 ) ) ;
#96 = AXIS2_PLACEMENT_3D ( 'NONE', #66, #26, #37 ) ;
#97 = APPROVAL_ROLE ( '' ) ;
#98 = VERTEX_POINT ( 'NONE', #126 ) ;
#99 = EDGE_CURVE ( 'NONE', #94, #98, #110, .T. ) ;
#100 = DATE_AND_TIME ( #121, #131 ) ;
#101 = ORIENTED_EDGE ( 'NONE', *, *, #122, .F. ) ;
#102 = CC_DESIGN_APPROVAL ( #107, ( #144 ) ) ;
#103 = FACE_OUTER_BOUND ( 'NONE', #77, .T. ) ;
#104 = PRODUCT_DEFINITION_SHAPE ( 'NONE', 'NONE',  #86 ) ;
#105 = DATE_AND_TIME ( #155, #74 ) ;
#106 = ORIENTED_EDGE ( 'NONE', *, *, #175, .F. ) ;
#107 = APPROVAL ( #79, 'UNSPECIFIED' ) ;
#108 =( GEOMETRIC_REPRESENTATION_CONTEXT ( 3 ) GLOBAL_UNCERTAINTY_ASSIGNED_CONTEXT ( ( #92 ) ) GLOBAL_UNIT_ASSIGNED_CONTEXT ( ( #5, #118, #69 ) ) REPRESENTATION_CONTEXT ( 'NONE', 'WORKASPACE' ) );
#109 = DIRECTION ( 'NONE',  ( 0.0000000000000000000, 0.0000000000000000000, 1.000000000000000000 ) ) ;
#110 = CIRCLE ( 'NONE', #51, 10.00000000000000000 ) ;
#111 = DIRECTION ( 'NONE',  ( 1.000000000000000000, 0.0000000000000000000, -0.0000000000000000000 ) ) ;
#112 = EDGE_LOOP ( 'NONE', ( #47, #35, #12, #106 ) ) ;
#113 = PERSON_AND_ORGANIZATION_ROLE ( 'creator' ) ;
#114 = APPROVAL_STATUS ( 'not_yet_approved' ) ;
#115 = CC_DESIGN_PERSON_AND_ORGANIZATION_ASSIGNMENT ( #85, #82, ( #50 ) ) ;
#116 = LOCAL_TIME ( 14, 32, 0.0000000000000000000, #71 ) ;
#117 = ORIENTED_EDGE ( 'NONE', *, *, #99, .T. ) ;
#118 =( NAMED_UNIT ( * ) PLANE_ANGLE_UNIT ( ) SI_UNIT ( $, .RADIAN. ) );
#119 = APPLICATION_PROTOCOL_DEFINITION ( 'international standard', 'config_control_design', 1994, #153 ) ;
#120 = PERSON ( 'UNSPECIFIED', 'UNSPECIFIED', 'UNSPECIFIED', ('UNSPECIFIED'), ('UNSPECIFIED'), ('UNSPECIFIED') ) ;
#121 = CALENDAR_DATE ( 2017, 31, 1 ) ;
#122 = EDGE_CURVE ( 'NONE', #98, #94, #24, .T. ) ;
#123 = LINE ( 'NONE', #16, #171 ) ;
#124 = DIRECTION ( 'NONE',  ( 0.0000000000000000000, 0.0000000000000000000, 1.000000000000000000 ) ) ;
#125 = DIRECTION ( 'NONE',  ( 0.0000000000000000000, 0.0000000000000000000, 1.000000000000000000 ) ) ;
#126 = CARTESIAN_POINT ( 'NONE',  ( 10.00000000000000000, 1.224646799147353300E-015, 0.0000000000000000000 ) ) ;
#127 = APPROVAL_STATUS ( 'not_yet_approved' ) ;
#128 = CC_DESIGN_DATE_AND_TIME_ASSIGNMENT ( #159, #21, ( #50 ) ) ;
#129 = COORDINATED_UNIVERSAL_TIME_OFFSET ( 5, 0, .BEHIND. ) ;
#130 = APPROVAL_ROLE ( '' ) ;
#131 = LOCAL_TIME ( 14, 32, 0.0000000000000000000, #129 ) ;
#132 = MANIFOLD_SOLID_BREP ( 'Extrude1', #135 ) ;
#133 = AXIS2_PLACEMENT_3D ( 'NONE', #30, #67, #111 ) ;
#134 = FACE_OUTER_BOUND ( 'NONE', #112, .T. ) ;
#135 = CLOSED_SHELL ( 'NONE', ( #15, #167, #2, #10 ) ) ;
#136 = EDGE_LOOP ( 'NONE', ( #59, #101 ) ) ;
#137 = DATE_AND_TIME ( #34, #174 ) ;
#138 = APPROVAL_DATE_TIME ( #137, #38 ) ;
#139 = APPROVAL_ROLE ( '' ) ;
#140 = FACE_OUTER_BOUND ( 'NONE', #136, .T. ) ;
#141 = CC_DESIGN_DATE_AND_TIME_ASSIGNMENT ( #105, #32, ( #86 ) ) ;
#142 = PERSON_AND_ORGANIZATION ( #120, #56 ) ;
#143 = PRODUCT ( 'Web Model 65924', 'Web Model 65924', '', ( #152 ) ) ;
#144 = PRODUCT_DEFINITION_FORMATION_WITH_SPECIFIED_SOURCE ( 'ANY', '', #143, .NOT_KNOWN. ) ;
#145 = CARTESIAN_POINT ( 'NONE',  ( -10.00000000000000000, 0.0000000000000000000, 2.000000000000000000 ) ) ;
#146 = CARTESIAN_POINT ( 'NONE',  ( 0.0000000000000000000, 0.0000000000000000000, 0.0000000000000000000 ) ) ;
#147 = CARTESIAN_POINT ( 'NONE',  ( -10.00000000000000000, 0.0000000000000000000, 2.000000000000000000 ) ) ;
#148 = COORDINATED_UNIVERSAL_TIME_OFFSET ( 5, 0, .BEHIND. ) ;
#149 = SECURITY_CLASSIFICATION_LEVEL ( 'unclassified' ) ;
#150 = PERSON_AND_ORGANIZATION ( #120, #56 ) ;
#151 = APPROVAL_PERSON_ORGANIZATION ( #142, #38, #130 ) ;
#152 = MECHANICAL_CONTEXT ( 'NONE', #33, 'mechanical' ) ;
#153 = APPLICATION_CONTEXT ( 'configuration controlled 3d designs of mechanical parts and assemblies' ) ;
#154 = CC_DESIGN_PERSON_AND_ORGANIZATION_ASSIGNMENT ( #49, #44, ( #144 ) ) ;
#155 = CALENDAR_DATE ( 2017, 31, 1 ) ;
#156 = AXIS2_PLACEMENT_3D ( 'NONE', #166, #125, #39 ) ;
#157 = EDGE_LOOP ( 'NONE', ( #58, #81, #36, #117 ) ) ;
#158 = DESIGN_CONTEXT ( 'detailed design', #153, 'design' ) ;
#159 = DATE_AND_TIME ( #8, #116 ) ;
#160 = CC_DESIGN_APPROVAL ( #172, ( #50 ) ) ;
#161 = CALENDAR_DATE ( 2017, 31, 1 ) ;
#162 = DIRECTION ( 'NONE',  ( 1.000000000000000000, 0.0000000000000000000, 0.0000000000000000000 ) ) ;
#163 = DIRECTION ( 'NONE',  ( 1.000000000000000000, 0.0000000000000000000, 0.0000000000000000000 ) ) ;
#164 = CC_DESIGN_SECURITY_CLASSIFICATION ( #50, ( #144 ) ) ;
#165 = CARTESIAN_POINT ( 'NONE',  ( 0.0000000000000000000, 0.0000000000000000000, 0.0000000000000000000 ) ) ;
#166 = CARTESIAN_POINT ( 'NONE',  ( 0.0000000000000000000, 0.0000000000000000000, 2.000000000000000000 ) ) ;
#167 = ADVANCED_FACE ( 'NONE', ( #73 ), #29, .T. ) ;
#168 = PERSON_AND_ORGANIZATION_ROLE ( 'design_owner' ) ;
#169 = APPLICATION_PROTOCOL_DEFINITION ( 'international standard', 'config_control_design', 1994, #33 ) ;
#170 = CIRCLE ( 'NONE', #156, 10.00000000000000000 ) ;
#171 = VECTOR ( 'NONE', #89, 1000.000000000000000 ) ;
#172 = APPROVAL ( #127, 'UNSPECIFIED' ) ;
#173 = APPROVAL_PERSON_ORGANIZATION ( #46, #172, #97 ) ;
#174 = LOCAL_TIME ( 14, 32, 0.0000000000000000000, #70 ) ;
#175 = EDGE_CURVE ( 'NONE', #61, #94, #3, .T. ) ;
ENDSEC;
END-ISO-10303-21;
