ISO-10303-21;
HEADER;
FILE_DESCRIPTION (( 'STEP AP203' ),
    '1' );
FILE_NAME ('TTN227581-E0W.STEP',
    '2021-02-24T20:34:18',
    ( '' ),
    ( '' ),
    'SwSTEP 2.0',
    'SolidWorks 2018',
    '' );
FILE_SCHEMA (( 'CONFIG_CONTROL_DESIGN' ));
ENDSEC;

DATA;
#1 = CARTESIAN_POINT ( 'NONE',  ( 10.79599497701273947, 10.89140101748644796, 11.91403350241884418 ) ) ;
#2 = CC_DESIGN_PERSON_AND_ORGANIZATION_ASSIGNMENT ( #8, #15, ( #226 ) ) ;
#3 = DIRECTION ( 'NONE',  ( -0.000000000000000000, -0.000000000000000000, 1.000000000000000000 ) ) ;
#4 = CARTESIAN_POINT ( 'NONE',  ( 10.79599497701273947, 10.89140101748644796, 11.66403350241884240 ) ) ;
#5 = CARTESIAN_POINT ( 'NONE',  ( -1.904005022987259155, 10.89140101748645151, 11.91403350241884951 ) ) ;
#6 = CARTESIAN_POINT ( 'NONE',  ( 4.445994977012739824, 10.89140101748645328, 6.414033502418846844 ) ) ;
#7 = DIRECTION ( 'NONE',  ( -1.000000000000000000, 0.000000000000000000, -0.000000000000000000 ) ) ;
#8 = PERSON_AND_ORGANIZATION ( #14, #249 ) ;
#9 = CARTESIAN_POINT ( 'NONE',  ( 19.44599497701273805, 7.715974536943503992, 6.164033502418847732 ) ) ;
#10 = DIRECTION ( 'NONE',  ( 0.000000000000000000, -0.000000000000000000, -1.000000000000000000 ) ) ;
#11 = CARTESIAN_POINT ( 'NONE',  ( 10.54599497701274302, 10.89140101748645151, 12.16403350241884773 ) ) ;
#12 = APPROVAL ( #159, 'UNSPECIFIED' ) ;
#13 = VERTEX_POINT ( 'NONE', #102 ) ;
#14 = PERSON ( 'UNSPECIFIED', 'UNSPECIFIED', 'UNSPECIFIED', ('UNSPECIFIED'), ('UNSPECIFIED'), ('UNSPECIFIED') ) ;
#15 = PERSON_AND_ORGANIZATION_ROLE ( 'creator' ) ;
#16 = FACE_OUTER_BOUND ( 'NONE', #125, .T. ) ;
#17 = FACE_OUTER_BOUND ( 'NONE', #176, .T. ) ;
#18 = DATE_AND_TIME ( #25, #180 ) ;
#19 = FACE_OUTER_BOUND ( 'NONE', #266, .T. ) ;
#20 = ORIENTED_EDGE ( 'NONE', *, *, #39, .T. ) ;
#21 = APPROVAL_DATE_TIME ( #177, #255 ) ;
#22 = ORIENTED_EDGE ( 'NONE', *, *, #174, .T. ) ;
#23 = SECURITY_CLASSIFICATION_LEVEL ( 'unclassified' ) ;
#24 = VERTEX_POINT ( 'NONE', #164 ) ;
#25 = CALENDAR_DATE ( 2021, 24, 2 ) ;
#26 = CC_DESIGN_APPROVAL ( #12, ( #228 ) ) ;
#27 = PLANE ( 'NONE',  #276 ) ;
#28 = DIRECTION ( 'NONE',  ( -0.000000000000000000, -0.000000000000000000, 1.000000000000000000 ) ) ;
#29 = ORIENTED_EDGE ( 'NONE', *, *, #63, .F. ) ;
#30 = CARTESIAN_POINT ( 'NONE',  ( 4.445994977012739824, 10.89140101748645328, 6.414033502418846844 ) ) ;
#31 = CARTESIAN_POINT ( 'NONE',  ( -0.7623316896496556971, 7.715974536943503992, 6.164033502418847732 ) ) ;
#32 = CIRCLE ( 'NONE', #166, 6.349999999999999645 ) ;
#33 = CARTESIAN_POINT ( 'NONE',  ( -1.904005022987260043, 10.89140101748644796, 11.66403350241884240 ) ) ;
#34 = CARTESIAN_POINT ( 'NONE',  ( -0.7623316896496556971, 7.715974536943503992, 6.164033502418847732 ) ) ;
#35 = LOCAL_TIME ( 15, 34, 18.00000000000000000, #194 ) ;
#36 = DIRECTION ( 'NONE',  ( 1.000000000000000000, 8.531426931033475461E-16, 0.000000000000000000 ) ) ;
#37 = APPLICATION_CONTEXT ( 'configuration controlled 3d designs of mechanical parts and assemblies' ) ;
#38 = VECTOR ( 'NONE', #46, 1000.000000000000000 ) ;
#39 = EDGE_CURVE ( 'NONE', #272, #40, #200, .T. ) ;
#40 = VERTEX_POINT ( 'NONE', #1 ) ;
#41 =( BOUNDED_CURVE ( )  B_SPLINE_CURVE ( 3, ( #68, #211, #237, #4 ),
 .UNSPECIFIED., .F., .T. ) 
 B_SPLINE_CURVE_WITH_KNOTS ( ( 4, 4 ),
 ( 4.214767500413698187, 4.712388980384688786 ),
 .UNSPECIFIED. ) 
 CURVE ( )  GEOMETRIC_REPRESENTATION_ITEM ( )  RATIONAL_B_SPLINE_CURVE ( ( 1.000000000000000000, 0.9794706427280284178, 0.9794706427280284178, 1.000000000000000000 ) ) 
 REPRESENTATION_ITEM ( '' )  );
#42 = VECTOR ( 'NONE', #214, 1000.000000000000000 ) ;
#43 = EDGE_CURVE ( 'NONE', #181, #232, #131, .T. ) ;
#44 = ORIENTED_EDGE ( 'NONE', *, *, #185, .T. ) ;
#45 = LOCAL_TIME ( 15, 34, 18.00000000000000000, #246 ) ;
#46 = DIRECTION ( 'NONE',  ( 0.7071067811865426878, 0.000000000000000000, -0.7071067811865523467 ) ) ;
#47 = CLOSED_SHELL ( 'NONE', ( #108, #170, #216, #144, #147, #51, #241 ) ) ;
#48 = CARTESIAN_POINT ( 'NONE',  ( -1.133879573548405739, 7.860312104240910536, 6.414033502418846844 ) ) ;
#49 = EDGE_CURVE ( 'NONE', #13, #205, #80, .T. ) ;
#50 = PLANE ( 'NONE',  #114 ) ;
#51 = ADVANCED_FACE ( 'NONE', ( #87 ), #141, .T. ) ;
#52 = DIRECTION ( 'NONE',  ( -1.000000000000000000, 0.000000000000000000, 0.000000000000000000 ) ) ;
#53 = CARTESIAN_POINT ( 'NONE',  ( 9.779305334543222372, 7.763348010684937961, 6.246086765870040303 ) ) ;
#54 = APPROVAL ( #128, 'UNSPECIFIED' ) ;
#55 = DIRECTION ( 'NONE',  ( 1.000000000000000000, 0.000000000000000000, 0.000000000000000000 ) ) ;
#56 = ORIENTED_EDGE ( 'NONE', *, *, #95, .T. ) ;
#57 = LINE ( 'NONE', #71, #210 ) ;
#58 = FACE_OUTER_BOUND ( 'NONE', #203, .T. ) ;
#59 = VERTEX_POINT ( 'NONE', #100 ) ;
#60 = EDGE_LOOP ( 'NONE', ( #29, #20, #151, #83, #135, #139 ) ) ;
#61 = DATE_AND_TIME ( #148, #45 ) ;
#62 = VECTOR ( 'NONE', #188, 1000.000000000000000 ) ;
#63 = EDGE_CURVE ( 'NONE', #272, #171, #242, .T. ) ;
#64 = CC_DESIGN_SECURITY_CLASSIFICATION ( #228, ( #226 ) ) ;
#65 = PRODUCT_DEFINITION_SHAPE ( 'NONE', 'NONE',  #157 ) ;
#66 = CARTESIAN_POINT ( 'NONE',  ( -1.133879573548405739, 7.860312104240910536, 6.414033502418846844 ) ) ;
#67 = ADVANCED_BREP_SHAPE_REPRESENTATION ( 'TTN227581-E0W', ( #158, #213 ), #235 ) ;
#68 = CARTESIAN_POINT ( 'NONE',  ( 10.02586952757388516, 7.860312104240910536, 6.414033502418846844 ) ) ;
#69 = CARTESIAN_POINT ( 'NONE',  ( -1.011137895102646844, 7.811495131238049616, 6.329480024906173341 ) ) ;
#70 = FACE_OUTER_BOUND ( 'NONE', #269, .T. ) ;
#71 = CARTESIAN_POINT ( 'NONE',  ( 19.44599497701273805, 7.715974536943503992, 6.164033502418847732 ) ) ;
#72 = CARTESIAN_POINT ( 'NONE',  ( 10.02586952757388516, 7.860312104240910536, 6.414033502418846844 ) ) ;
#73 = PERSON_AND_ORGANIZATION_ROLE ( 'creator' ) ;
#74 = ORIENTED_EDGE ( 'NONE', *, *, #202, .F. ) ;
#75 = PERSON_AND_ORGANIZATION ( #14, #249 ) ;
#76 = EDGE_CURVE ( 'NONE', #205, #171, #274, .T. ) ;
#77 = APPROVAL_PERSON_ORGANIZATION ( #234, #54, #152 ) ;
#78 = PRODUCT_RELATED_PRODUCT_CATEGORY ( 'detail', '', ( #91 ) ) ;
#79 = CALENDAR_DATE ( 2021, 24, 2 ) ;
#80 = LINE ( 'NONE', #239, #136 ) ;
#81 = AXIS2_PLACEMENT_3D ( 'NONE', #118, #3, #52 ) ;
#82 = CARTESIAN_POINT ( 'NONE',  ( 19.44599497701273805, 10.89140101748645151, 12.16403350241884773 ) ) ;
#83 = ORIENTED_EDGE ( 'NONE', *, *, #137, .T. ) ;
#84 = DIRECTION ( 'NONE',  ( 0.000000000000000000, 0.000000000000000000, -1.000000000000000000 ) ) ;
#85 = AXIS2_PLACEMENT_3D ( 'NONE', #9, #215, #101 ) ;
#86 = CARTESIAN_POINT ( 'NONE',  ( 19.44599497701273805, 10.89140101748645151, 11.66403350241884773 ) ) ;
#87 = FACE_OUTER_BOUND ( 'NONE', #189, .T. ) ;
#88 = PLANE ( 'NONE',  #85 ) ;
#89 = CARTESIAN_POINT ( 'NONE',  ( -0.8873153805177410591, 7.763348010684937961, 6.246086765870040303 ) ) ;
#90 = COORDINATED_UNIVERSAL_TIME_OFFSET ( 5, 0, .BEHIND. ) ;
#91 = PRODUCT ( 'TTN227581-E0W', 'TTN227581-E0W', '', ( #221 ) ) ;
#92 = CARTESIAN_POINT ( 'NONE',  ( 0.000000000000000000, 0.000000000000000000, 0.000000000000000000 ) ) ;
#93 = CYLINDRICAL_SURFACE ( 'NONE', #253, 6.349999999999999645 ) ;
#94 = ORIENTED_EDGE ( 'NONE', *, *, #155, .T. ) ;
#95 = EDGE_CURVE ( 'NONE', #232, #59, #41, .T. ) ;
#96 = VECTOR ( 'NONE', #236, 1000.000000000000000 ) ;
#97 = CONICAL_SURFACE ( 'NONE', #261, 6.099999999999999645, 0.7853981633974412846 ) ;
#98 = ORIENTED_EDGE ( 'NONE', *, *, #63, .T. ) ;
#99 = UNCERTAINTY_MEASURE_WITH_UNIT (LENGTH_MEASURE( 1.000000000000000082E-05 ), #264, 'distance_accuracy_value', 'NONE');
#100 = CARTESIAN_POINT ( 'NONE',  ( 10.79599497701273947, 10.89140101748644796, 11.66403350241884240 ) ) ;
#101 = DIRECTION ( 'NONE',  ( 0.000000000000000000, -0.5000000000000007772, -0.8660254037844381525 ) ) ;
#102 = CARTESIAN_POINT ( 'NONE',  ( -1.904005022987260043, 10.89140101748644796, 11.66403350241884240 ) ) ;
#103 = DIRECTION ( 'NONE',  ( -1.000000000000000000, -0.000000000000000000, -0.000000000000000000 ) ) ;
#104 = DIRECTION ( 'NONE',  ( 1.000000000000000000, 0.000000000000000000, 0.000000000000000000 ) ) ;
#105 = EDGE_CURVE ( 'NONE', #59, #40, #178, .T. ) ;
#106 = APPROVAL_PERSON_ORGANIZATION ( #199, #255, #265 ) ;
#107 = CARTESIAN_POINT ( 'NONE',  ( 19.44599497701273805, 10.89140101748645151, 11.66403350241884773 ) ) ;
#108 = ADVANCED_FACE ( 'NONE', ( #123 ), #27, .F. ) ;
#109 = ORIENTED_EDGE ( 'NONE', *, *, #43, .F. ) ;
#110 = APPLICATION_PROTOCOL_DEFINITION ( 'international standard', 'config_control_design', 1994, #250 ) ;
#111 = EDGE_CURVE ( 'NONE', #40, #205, #32, .T. ) ;
#112 = PERSON_AND_ORGANIZATION_ROLE ( 'design_owner' ) ;
#113 = ORIENTED_EDGE ( 'NONE', *, *, #222, .T. ) ;
#114 = AXIS2_PLACEMENT_3D ( 'NONE', #165, #212, #7 ) ;
#115 = APPROVAL_ROLE ( '' ) ;
#116 = VECTOR ( 'NONE', #103, 1000.000000000000000 ) ;
#117 = CC_DESIGN_APPROVAL ( #255, ( #157 ) ) ;
#118 = CARTESIAN_POINT ( 'NONE',  ( 4.445994977012739824, 10.89140101748645328, 12.16403350241884773 ) ) ;
#119 = AXIS2_PLACEMENT_3D ( 'NONE', #30, #28, #140 ) ;
#120 = CARTESIAN_POINT ( 'NONE',  ( 10.79599497701273947, 10.89140101748644796, 6.164033502418847732 ) ) ;
#121 = ORIENTED_EDGE ( 'NONE', *, *, #111, .T. ) ;
#122 = DIRECTION ( 'NONE',  ( -0.000000000000000000, -0.000000000000000000, 1.000000000000000000 ) ) ;
#123 = FACE_OUTER_BOUND ( 'NONE', #60, .T. ) ;
#124 = CARTESIAN_POINT ( 'NONE',  ( -1.904005022987258933, 9.827086662419985075, 9.820586964218827930 ) ) ;
#125 = EDGE_LOOP ( 'NONE', ( #98, #44 ) ) ;
#126 = DIRECTION ( 'NONE',  ( -1.000000000000000000, 0.000000000000000000, 0.000000000000000000 ) ) ;
#127 = AXIS2_PLACEMENT_3D ( 'NONE', #191, #149, #193 ) ;
#128 = APPROVAL_STATUS ( 'not_yet_approved' ) ;
#129 = PERSON_AND_ORGANIZATION_ROLE ( 'design_supplier' ) ;
#130 = ORIENTED_EDGE ( 'NONE', *, *, #95, .F. ) ;
#131 = CIRCLE ( 'NONE', #160, 6.349999999999999645 ) ;
#132 = COORDINATED_UNIVERSAL_TIME_OFFSET ( 5, 0, .BEHIND. ) ;
#133 = DATE_AND_TIME ( #184, #35 ) ;
#134 = CALENDAR_DATE ( 2021, 24, 2 ) ;
#135 = ORIENTED_EDGE ( 'NONE', *, *, #49, .T. ) ;
#136 = VECTOR ( 'NONE', #122, 1000.000000000000000 ) ;
#137 = EDGE_CURVE ( 'NONE', #59, #13, #260, .T. ) ;
#138 = DATE_AND_TIME ( #134, #263 ) ;
#139 = ORIENTED_EDGE ( 'NONE', *, *, #76, .T. ) ;
#140 = DIRECTION ( 'NONE',  ( 1.000000000000000000, 0.000000000000000000, 0.000000000000000000 ) ) ;
#141 = CONICAL_SURFACE ( 'NONE', #119, 6.349999999999999645, 0.7853981633974500554 ) ;
#142 = CARTESIAN_POINT ( 'NONE',  ( 9.903127849128127380, 7.811495131238049616, 6.329480024906173341 ) ) ;
#143 = CARTESIAN_POINT ( 'NONE',  ( 4.445994977012739824, 10.89140101748645151, 18.26403350241893264 ) ) ;
#144 = ADVANCED_FACE ( 'NONE', ( #70 ), #88, .F. ) ;
#145 = ORIENTED_EDGE ( 'NONE', *, *, #43, .T. ) ;
#146 = CARTESIAN_POINT ( 'NONE',  ( 4.445994977012739824, 10.89140101748645328, 6.164033502418847732 ) ) ;
#147 = ADVANCED_FACE ( 'NONE', ( #17 ), #93, .T. ) ;
#148 = CALENDAR_DATE ( 2021, 24, 2 ) ;
#149 = DIRECTION ( 'NONE',  ( 0.000000000000000000, 0.000000000000000000, 1.000000000000000000 ) ) ;
#150 = DIRECTION ( 'NONE',  ( -0.000000000000000000, -0.000000000000000000, -1.000000000000000000 ) ) ;
#151 = ORIENTED_EDGE ( 'NONE', *, *, #105, .F. ) ;
#152 = APPROVAL_ROLE ( '' ) ;
#153 = COORDINATED_UNIVERSAL_TIME_OFFSET ( 5, 0, .BEHIND. ) ;
#154 = CIRCLE ( 'NONE', #223, 6.100000000000001421 ) ;
#155 = EDGE_CURVE ( 'NONE', #24, #156, #57, .T. ) ;
#156 = VERTEX_POINT ( 'NONE', #34 ) ;
#157 = PRODUCT_DEFINITION ( 'UNKNOWN', '', #226, #227 ) ;
#158 = MANIFOLD_SOLID_BREP ( 'TTN227590-1-solid1', #47 ) ;
#159 = APPROVAL_STATUS ( 'not_yet_approved' ) ;
#160 = AXIS2_PLACEMENT_3D ( 'NONE', #6, #163, #209 ) ;
#161 = APPROVAL_PERSON_ORGANIZATION ( #225, #12, #115 ) ;
#162 = ORIENTED_EDGE ( 'NONE', *, *, #76, .F. ) ;
#163 = DIRECTION ( 'NONE',  ( -0.000000000000000000, -0.000000000000000000, 1.000000000000000000 ) ) ;
#164 = CARTESIAN_POINT ( 'NONE',  ( 9.654321643675135789, 7.715974536943503992, 6.164033502418847732 ) ) ;
#165 = CARTESIAN_POINT ( 'NONE',  ( 19.44599497701273805, 10.89140101748645151, 12.16403350241884773 ) ) ;
#166 = AXIS2_PLACEMENT_3D ( 'NONE', #217, #84, #259 ) ;
#167 = DIRECTION ( 'NONE',  ( -1.000000000000000000, -0.000000000000000000, -0.000000000000000000 ) ) ;
#168 =( BOUNDED_CURVE ( )  B_SPLINE_CURVE ( 3, ( #33, #124, #218, #244 ),
 .UNSPECIFIED., .F., .F. ) 
 B_SPLINE_CURVE_WITH_KNOTS ( ( 4, 4 ),
 ( 1.570796326794897446, 2.068417806765887601 ),
 .UNSPECIFIED. ) 
 CURVE ( )  GEOMETRIC_REPRESENTATION_ITEM ( )  RATIONAL_B_SPLINE_CURVE ( ( 1.000000000000000000, 0.9794706427280286398, 0.9794706427280286398, 1.000000000000000000 ) ) 
 REPRESENTATION_ITEM ( '' )  );
#169 = DIRECTION ( 'NONE',  ( -0.000000000000000000, -0.000000000000000000, 1.000000000000000000 ) ) ;
#170 = ADVANCED_FACE ( 'NONE', ( #16 ), #50, .F. ) ;
#171 = VERTEX_POINT ( 'NONE', #243 ) ;
#172 = CARTESIAN_POINT ( 'NONE',  ( 9.654321643675135789, 7.715974536943503992, 6.164033502418847732 ) ) ;
#173 = APPLICATION_PROTOCOL_DEFINITION ( 'international standard', 'config_control_design', 1994, #37 ) ;
#174 = EDGE_CURVE ( 'NONE', #13, #181, #168, .T. ) ;
#175 = APPROVAL_STATUS ( 'not_yet_approved' ) ;
#176 = EDGE_LOOP ( 'NONE', ( #22, #145, #56, #220, #121, #229 ) ) ;
#177 = DATE_AND_TIME ( #79, #273 ) ;
#178 = LINE ( 'NONE', #120, #62 ) ;
#179 = CC_DESIGN_PERSON_AND_ORGANIZATION_ASSIGNMENT ( #75, #112, ( #91 ) ) ;
#180 = LOCAL_TIME ( 15, 34, 18.00000000000000000, #153 ) ;
#181 = VERTEX_POINT ( 'NONE', #48 ) ;
#182 = ORIENTED_EDGE ( 'NONE', *, *, #222, .F. ) ;
#183 = PERSON_AND_ORGANIZATION ( #14, #249 ) ;
#184 = CALENDAR_DATE ( 2021, 24, 2 ) ;
#185 = EDGE_CURVE ( 'NONE', #171, #272, #275, .T. ) ;
#186 = ORIENTED_EDGE ( 'NONE', *, *, #256, .T. ) ;
#187 = CARTESIAN_POINT ( 'NONE',  ( 10.02586952757388516, 7.860312104240910536, 6.414033502418846844 ) ) ;
#188 = DIRECTION ( 'NONE',  ( -0.000000000000000000, -0.000000000000000000, 1.000000000000000000 ) ) ;
#189 = EDGE_LOOP ( 'NONE', ( #74, #262, #182, #109 ) ) ;
#190 = PLANE ( 'NONE',  #127 ) ;
#191 = CARTESIAN_POINT ( 'NONE',  ( 19.44599497701273805, 4.541401017486452751, 6.164033502418847732 ) ) ;
#192 = APPROVAL_DATE_TIME ( #133, #12 ) ;
#193 = DIRECTION ( 'NONE',  ( 1.000000000000000000, 0.000000000000000000, -0.000000000000000000 ) ) ;
#194 = COORDINATED_UNIVERSAL_TIME_OFFSET ( 5, 0, .BEHIND. ) ;
#195 = B_SPLINE_CURVE_WITH_KNOTS ( 'NONE', 3,
 ( #31, #89, #69, #66 ),
 .UNSPECIFIED., .F., .F.,
 ( 4, 4 ),
 ( 5.421010862427522170E-19, 0.0004705115974797762749 ),
 .UNSPECIFIED. ) ;
#196 = DIRECTION ( 'NONE',  ( 0.000000000000000000, 0.000000000000000000, -1.000000000000000000 ) ) ;
#197 =( NAMED_UNIT ( * ) PLANE_ANGLE_UNIT ( ) SI_UNIT ( $, .RADIAN. ) );
#198 = ORIENTED_EDGE ( 'NONE', *, *, #155, .F. ) ;
#199 = PERSON_AND_ORGANIZATION ( #14, #249 ) ;
#200 = LINE ( 'NONE', #143, #38 ) ;
#201 = PERSON_AND_ORGANIZATION ( #14, #249 ) ;
#202 = EDGE_CURVE ( 'NONE', #156, #181, #195, .T. ) ;
#203 = EDGE_LOOP ( 'NONE', ( #162, #208, #238, #204 ) ) ;
#204 = ORIENTED_EDGE ( 'NONE', *, *, #185, .F. ) ;
#205 = VERTEX_POINT ( 'NONE', #5 ) ;
#206 = CC_DESIGN_DATE_AND_TIME_ASSIGNMENT ( #18, #268, ( #157 ) ) ;
#207 = CC_DESIGN_PERSON_AND_ORGANIZATION_ASSIGNMENT ( #201, #129, ( #226 ) ) ;
#208 = ORIENTED_EDGE ( 'NONE', *, *, #111, .F. ) ;
#209 = DIRECTION ( 'NONE',  ( 1.000000000000000000, 0.000000000000000000, 0.000000000000000000 ) ) ;
#210 = VECTOR ( 'NONE', #167, 1000.000000000000000 ) ;
#211 = CARTESIAN_POINT ( 'NONE',  ( 10.53390597510932380, 8.795546841820788941, 8.033907584910540578 ) ) ;
#212 = DIRECTION ( 'NONE',  ( 0.000000000000000000, 0.000000000000000000, -1.000000000000000000 ) ) ;
#213 = AXIS2_PLACEMENT_3D ( 'NONE', #92, #224, #55 ) ;
#214 = DIRECTION ( 'NONE',  ( 0.7071067811865426878, -0.000000000000000000, 0.7071067811865523467 ) ) ;
#215 = DIRECTION ( 'NONE',  ( 0.000000000000000000, -0.8660254037844382635, 0.5000000000000008882 ) ) ;
#216 = ADVANCED_FACE ( 'NONE', ( #19 ), #190, .F. ) ;
#217 = CARTESIAN_POINT ( 'NONE',  ( 4.445994977012739824, 10.89140101748645328, 11.91403350241884418 ) ) ;
#218 = CARTESIAN_POINT ( 'NONE',  ( -1.641916021083845267, 8.795546841820790718, 8.033907584910547683 ) ) ;
#219 = CARTESIAN_POINT ( 'NONE',  ( 4.445994977012739824, 10.89140101748645328, 6.164033502418847732 ) ) ;
#220 = ORIENTED_EDGE ( 'NONE', *, *, #105, .T. ) ;
#221 = MECHANICAL_CONTEXT ( 'NONE', #37, 'mechanical' ) ;
#222 = EDGE_CURVE ( 'NONE', #232, #24, #247, .T. ) ;
#223 = AXIS2_PLACEMENT_3D ( 'NONE', #219, #150, #36 ) ;
#224 = DIRECTION ( 'NONE',  ( 0.000000000000000000, 0.000000000000000000, 1.000000000000000000 ) ) ;
#225 = PERSON_AND_ORGANIZATION ( #14, #249 ) ;
#226 = PRODUCT_DEFINITION_FORMATION_WITH_SPECIFIED_SOURCE ( 'ANY', '', #91, .NOT_KNOWN. ) ;
#227 = DESIGN_CONTEXT ( 'detailed design', #250, 'design' ) ;
#228 = SECURITY_CLASSIFICATION ( '', '', #23 ) ;
#229 = ORIENTED_EDGE ( 'NONE', *, *, #49, .F. ) ;
#230 = DATE_TIME_ROLE ( 'classification_date' ) ;
#231 = APPROVAL_DATE_TIME ( #61, #54 ) ;
#232 = VERTEX_POINT ( 'NONE', #72 ) ;
#233 = ORIENTED_EDGE ( 'NONE', *, *, #137, .F. ) ;
#234 = PERSON_AND_ORGANIZATION ( #14, #249 ) ;
#235 =( GEOMETRIC_REPRESENTATION_CONTEXT ( 3 ) GLOBAL_UNCERTAINTY_ASSIGNED_CONTEXT ( ( #99 ) ) GLOBAL_UNIT_ASSIGNED_CONTEXT ( ( #264, #197, #251 ) ) REPRESENTATION_CONTEXT ( 'NONE', 'WORKASPACE' ) );
#236 = DIRECTION ( 'NONE',  ( -1.000000000000000000, -0.000000000000000000, -0.000000000000000000 ) ) ;
#237 = CARTESIAN_POINT ( 'NONE',  ( 10.79599497701273592, 9.827086662419979746, 9.820586964218822601 ) ) ;
#238 = ORIENTED_EDGE ( 'NONE', *, *, #39, .F. ) ;
#239 = CARTESIAN_POINT ( 'NONE',  ( -1.904005022987260043, 10.89140101748644796, 6.164033502418847732 ) ) ;
#240 = DIRECTION ( 'NONE',  ( 0.000000000000000000, -1.000000000000000000, 0.000000000000000000 ) ) ;
#241 = ADVANCED_FACE ( 'NONE', ( #58 ), #97, .T. ) ;
#242 = LINE ( 'NONE', #82, #96 ) ;
#243 = CARTESIAN_POINT ( 'NONE',  ( -1.654005022987264040, 10.89140101748645151, 12.16403350241884773 ) ) ;
#244 = CARTESIAN_POINT ( 'NONE',  ( -1.133879573548405739, 7.860312104240910536, 6.414033502418846844 ) ) ;
#245 = CC_DESIGN_PERSON_AND_ORGANIZATION_ASSIGNMENT ( #270, #278, ( #228 ) ) ;
#246 = COORDINATED_UNIVERSAL_TIME_OFFSET ( 5, 0, .BEHIND. ) ;
#247 = B_SPLINE_CURVE_WITH_KNOTS ( 'NONE', 3,
 ( #187, #142, #53, #172 ),
 .UNSPECIFIED., .F., .F.,
 ( 4, 4 ),
 ( 0.000000000000000000, 0.0004705115974797762749 ),
 .UNSPECIFIED. ) ;
#248 = CARTESIAN_POINT ( 'NONE',  ( 4.445994977012739824, 10.89140101748645328, 12.16403350241884773 ) ) ;
#249 = ORGANIZATION ( 'UNSPECIFIED', 'UNSPECIFIED', '' ) ;
#250 = APPLICATION_CONTEXT ( 'configuration controlled 3d designs of mechanical parts and assemblies' ) ;
#251 =( NAMED_UNIT ( * ) SI_UNIT ( $, .STERADIAN. ) SOLID_ANGLE_UNIT ( ) );
#252 = ORIENTED_EDGE ( 'NONE', *, *, #174, .F. ) ;
#253 = AXIS2_PLACEMENT_3D ( 'NONE', #146, #169, #104 ) ;
#254 = SHAPE_DEFINITION_REPRESENTATION ( #65, #67 ) ;
#255 = APPROVAL ( #175, 'UNSPECIFIED' ) ;
#256 = EDGE_CURVE ( 'NONE', #24, #156, #154, .T. ) ;
#257 = CC_DESIGN_APPROVAL ( #54, ( #226 ) ) ;
#258 = CARTESIAN_POINT ( 'NONE',  ( 4.445994977012739824, 10.89140101748645151, 18.26403350241893264 ) ) ;
#259 = DIRECTION ( 'NONE',  ( -1.000000000000000000, 0.000000000000000000, 0.000000000000000000 ) ) ;
#260 = LINE ( 'NONE', #107, #116 ) ;
#261 = AXIS2_PLACEMENT_3D ( 'NONE', #248, #196, #126 ) ;
#262 = ORIENTED_EDGE ( 'NONE', *, *, #256, .F. ) ;
#263 = LOCAL_TIME ( 15, 34, 18.00000000000000000, #90 ) ;
#264 =( LENGTH_UNIT ( ) NAMED_UNIT ( * ) SI_UNIT ( .MILLI., .METRE. ) );
#265 = APPROVAL_ROLE ( '' ) ;
#266 = EDGE_LOOP ( 'NONE', ( #198, #186 ) ) ;
#267 = CC_DESIGN_PERSON_AND_ORGANIZATION_ASSIGNMENT ( #183, #73, ( #157 ) ) ;
#268 = DATE_TIME_ROLE ( 'creation_date' ) ;
#269 = EDGE_LOOP ( 'NONE', ( #130, #113, #94, #277, #252, #233 ) ) ;
#270 = PERSON_AND_ORGANIZATION ( #14, #249 ) ;
#271 = CC_DESIGN_DATE_AND_TIME_ASSIGNMENT ( #138, #230, ( #228 ) ) ;
#272 = VERTEX_POINT ( 'NONE', #11 ) ;
#273 = LOCAL_TIME ( 15, 34, 18.00000000000000000, #132 ) ;
#274 = LINE ( 'NONE', #258, #42 ) ;
#275 = CIRCLE ( 'NONE', #81, 6.099999999999999645 ) ;
#276 = AXIS2_PLACEMENT_3D ( 'NONE', #86, #240, #10 ) ;
#277 = ORIENTED_EDGE ( 'NONE', *, *, #202, .T. ) ;
#278 = PERSON_AND_ORGANIZATION_ROLE ( 'classification_officer' ) ;
ENDSEC;
END-ISO-10303-21;
