ISO-10303-21;
HEADER;
FILE_DESCRIPTION (( 'STEP AP203' ),
    '1' );
FILE_NAME ('Web Model 48915_48915.step',
    '2017-06-06T17:30:34',
    ( '' ),
    ( '' ),
    'SwSTEP 2.0',
    'SolidWorks 2016',
    '' );
FILE_SCHEMA (( 'CONFIG_CONTROL_DESIGN' ));
ENDSEC;

DATA;
#1 = CC_DESIGN_PERSON_AND_ORGANIZATION_ASSIGNMENT ( #140, #132, ( #56 ) ) ;
#2 = ORIENTED_EDGE ( 'NONE', *, *, #57, .F. ) ;
#3 = CARTESIAN_POINT ( 'NONE',  ( -25.00000000000000400, -17.67999999999999300, 1.463672932855430800E-015 ) ) ;
#4 = CARTESIAN_POINT ( 'NONE',  ( -25.00000000000000400, -16.68000000000000000, 1.000000000000005800 ) ) ;
#5 = ORIENTED_EDGE ( 'NONE', *, *, #57, .T. ) ;
#6 = DIRECTION ( 'NONE',  ( -0.0000000000000000000, -0.7071067811865441300, -0.7071067811865510100 ) ) ;
#7 = CC_DESIGN_APPROVAL ( #43, ( #64 ) ) ;
#8 = PERSON_AND_ORGANIZATION_ROLE ( 'design_supplier' ) ;
#9 = LOCAL_TIME ( 13, 30, 34.00000000000000000, #58 ) ;
#10 = MECHANICAL_CONTEXT ( 'NONE', #177, 'mechanical' ) ;
#11 = APPLICATION_CONTEXT ( 'configuration controlled 3d designs of mechanical parts and assemblies' ) ;
#12 =( BOUNDED_CURVE ( )  B_SPLINE_CURVE ( 3, ( #142, #110, #103, #162 ),
 .UNSPECIFIED., .F., .F. ) 
 B_SPLINE_CURVE_WITH_KNOTS ( ( 4, 4 ),
 ( 3.141592653589793100, 6.283185307179586200 ),
 .UNSPECIFIED. ) 
 CURVE ( )  GEOMETRIC_REPRESENTATION_ITEM ( )  RATIONAL_B_SPLINE_CURVE ( ( 1.000000000000000000, 0.3333333333333333700, 0.3333333333333333700, 1.000000000000000000 ) ) 
 REPRESENTATION_ITEM ( '' )  );
#13 = PERSON_AND_ORGANIZATION ( #40, #59 ) ;
#14 = UNCERTAINTY_MEASURE_WITH_UNIT (LENGTH_MEASURE( 1.000000000000000100E-005 ), #48, 'distance_accuracy_value', 'NONE');
#15 = PERSON_AND_ORGANIZATION_ROLE ( 'design_owner' ) ;
#16 = CARTESIAN_POINT ( 'NONE',  ( 0.0000000000000000000, 0.9999999999999952300, 1.000000000000005100 ) ) ;
#17 = CARTESIAN_POINT ( 'NONE',  ( -2.795512324255811800E-015, -16.68000000000000700, 1.000000000000005600 ) ) ;
#18 = EDGE_CURVE ( 'NONE', #25, #34, #129, .T. ) ;
#19 = CC_DESIGN_DATE_AND_TIME_ASSIGNMENT ( #131, #133, ( #56 ) ) ;
#20 = CC_DESIGN_APPROVAL ( #51, ( #72 ) ) ;
#21 = CARTESIAN_POINT ( 'NONE',  ( -2.795512324255811800E-015, -16.68000000000000700, 1.000000000000005100 ) ) ;
#22 = ORIENTED_EDGE ( 'NONE', *, *, #123, .F. ) ;
#23 = PRODUCT ( 'Web Model 48915_48915', 'Web Model 48915_48915', '', ( #10 ) ) ;
#24 = DATE_AND_TIME ( #153, #9 ) ;
#25 = VERTEX_POINT ( 'NONE', #60 ) ;
#26 = LOCAL_TIME ( 13, 30, 34.00000000000000000, #144 ) ;
#27 = APPROVAL_PERSON_ORGANIZATION ( #13, #51, #164 ) ;
#28 = PRODUCT_RELATED_PRODUCT_CATEGORY ( 'detail', '', ( #23 ) ) ;
#29 = CARTESIAN_POINT ( 'NONE',  ( -25.00000000000000000, 18.68000000000000000, 1.000000000000005100 ) ) ;
#30 = CARTESIAN_POINT ( 'NONE',  ( 4.326320823190003100E-015, 18.67999999999999600, 1.000000000000005100 ) ) ;
#31 = CARTESIAN_POINT ( 'NONE',  ( 25.00000000000000400, 18.67999999999998600, 1.000000000000005300 ) ) ;
#32 = ADVANCED_FACE ( 'NONE', ( #99 ), #55, .F. ) ;
#33 = PERSON_AND_ORGANIZATION ( #40, #59 ) ;
#34 = VERTEX_POINT ( 'NONE', #30 ) ;
#35 = CARTESIAN_POINT ( 'NONE',  ( -25.00000000000000000, -16.68000000000000300, 1.000000000000005100 ) ) ;
#36 = LINE ( 'NONE', #50, #83 ) ;
#37 = PERSON_AND_ORGANIZATION ( #40, #59 ) ;
#38 = CC_DESIGN_PERSON_AND_ORGANIZATION_ASSIGNMENT ( #33, #15, ( #23 ) ) ;
#39 = CC_DESIGN_PERSON_AND_ORGANIZATION_ASSIGNMENT ( #49, #90, ( #64 ) ) ;
#40 = PERSON ( 'UNSPECIFIED', 'UNSPECIFIED', 'UNSPECIFIED', ('UNSPECIFIED'), ('UNSPECIFIED'), ('UNSPECIFIED') ) ;
#41 = DESIGN_CONTEXT ( 'detailed design', #11, 'design' ) ;
#42 = APPLICATION_PROTOCOL_DEFINITION ( 'international standard', 'config_control_design', 1994, #11 ) ;
#43 = APPROVAL ( #130, 'UNSPECIFIED' ) ;
#44 = CALENDAR_DATE ( 2017, 6, 6 ) ;
#45 = APPROVAL_PERSON_ORGANIZATION ( #73, #43, #67 ) ;
#46 = ORIENTED_EDGE ( 'NONE', *, *, #100, .T. ) ;
#47 = APPROVAL_STATUS ( 'not_yet_approved' ) ;
#48 =( LENGTH_UNIT ( ) NAMED_UNIT ( * ) SI_UNIT ( .MILLI., .METRE. ) );
#49 = PERSON_AND_ORGANIZATION ( #40, #59 ) ;
#50 = CARTESIAN_POINT ( 'NONE',  ( -2.795512324255811800E-015, -16.68000000000000700, 1.000000000000005100 ) ) ;
#51 = APPROVAL ( #183, 'UNSPECIFIED' ) ;
#52 = CALENDAR_DATE ( 2017, 6, 6 ) ;
#53 = CARTESIAN_POINT ( 'NONE',  ( 25.00000000000000000, -17.68000000000000300, 0.0000000000000000000 ) ) ;
#54 = CALENDAR_DATE ( 2017, 6, 6 ) ;
#55 =( BOUNDED_SURFACE ( )  B_SPLINE_SURFACE ( 3, 1, ( 
 ( #124, #158 ),
 ( #84, #152 ),
 ( #4, #3 ),
 ( #86, #98 ) ),
 .UNSPECIFIED., .F., .F., .T. ) 
 B_SPLINE_SURFACE_WITH_KNOTS ( ( 4, 4 ),
 ( 2, 2 ),
 ( 0.0000000000000000000, 1.000000000000000000 ),
 ( 0.0000000000000000000, 1.000000000000000000 ),
 .UNSPECIFIED. ) 
 GEOMETRIC_REPRESENTATION_ITEM ( )  RATIONAL_B_SPLINE_SURFACE ( (
 ( 1.000000000000000000, 1.000000000000000000),
 ( 0.3333333333333333700, 0.3333333333333333700),
 ( 0.3333333333333333700, 0.3333333333333333700),
 ( 1.000000000000000000, 1.000000000000000000) ) ) 
 REPRESENTATION_ITEM ( '' )  SURFACE ( )  );
#56 = PRODUCT_DEFINITION ( 'UNKNOWN', '', #72, #41 ) ;
#57 = EDGE_CURVE ( 'NONE', #25, #107, #36, .T. ) ;
#58 = COORDINATED_UNIVERSAL_TIME_OFFSET ( 5, 0, .BEHIND. ) ;
#59 = ORGANIZATION ( 'UNSPECIFIED', 'UNSPECIFIED', '' ) ;
#60 = CARTESIAN_POINT ( 'NONE',  ( -2.795512324255811800E-015, -16.68000000000000700, 1.000000000000005100 ) ) ;
#61 = CARTESIAN_POINT ( 'NONE',  ( 25.00000000000000000, -16.68000000000001000, 1.000000000000005300 ) ) ;
#62 = PLANE ( 'NONE',  #76 ) ;
#63 = PRODUCT_DEFINITION_SHAPE ( 'NONE', 'NONE',  #56 ) ;
#64 = SECURITY_CLASSIFICATION ( '', '', #78 ) ;
#65 = PERSON_AND_ORGANIZATION ( #40, #59 ) ;
#66 = EDGE_LOOP ( 'NONE', ( #139, #46 ) ) ;
#67 = APPROVAL_ROLE ( '' ) ;
#68 = DATE_TIME_ROLE ( 'classification_date' ) ;
#69 = ORIENTED_EDGE ( 'NONE', *, *, #159, .T. ) ;
#70 = COORDINATED_UNIVERSAL_TIME_OFFSET ( 5, 0, .BEHIND. ) ;
#71 = AXIS2_PLACEMENT_3D ( 'NONE', #88, #94, #157 ) ;
#72 = PRODUCT_DEFINITION_FORMATION_WITH_SPECIFIED_SOURCE ( 'ANY', '', #23, .NOT_KNOWN. ) ;
#73 = PERSON_AND_ORGANIZATION ( #40, #59 ) ;
#74 = CARTESIAN_POINT ( 'NONE',  ( 4.326320823190003100E-015, 17.68000000000000000, 1.084202172485504400E-015 ) ) ;
#75 = CARTESIAN_POINT ( 'NONE',  ( 4.326320823190003100E-015, 18.67999999999999600, 1.000000000000005100 ) ) ;
#76 = AXIS2_PLACEMENT_3D ( 'NONE', #16, #91, #166 ) ;
#77 = ORIENTED_EDGE ( 'NONE', *, *, #18, .F. ) ;
#78 = SECURITY_CLASSIFICATION_LEVEL ( 'unclassified' ) ;
#79 = CLOSED_SHELL ( 'NONE', ( #32, #85, #156, #97 ) ) ;
#80 = COORDINATED_UNIVERSAL_TIME_OFFSET ( 5, 0, .BEHIND. ) ;
#81 =( NAMED_UNIT ( * ) SI_UNIT ( $, .STERADIAN. ) SOLID_ANGLE_UNIT ( ) );
#82 = CARTESIAN_POINT ( 'NONE',  ( 25.00000000000000000, 18.67999999999998900, 1.000000000000005100 ) ) ;
#83 = VECTOR ( 'NONE', #146, 1000.000000000000000 ) ;
#84 = CARTESIAN_POINT ( 'NONE',  ( -25.00000000000000000, 18.68000000000000700, 1.000000000000005800 ) ) ;
#85 = ADVANCED_FACE ( 'NONE', ( #172 ), #150, .F. ) ;
#86 = CARTESIAN_POINT ( 'NONE',  ( -2.795512324255811800E-015, -16.68000000000000300, 1.000000000000005800 ) ) ;
#87 = CARTESIAN_POINT ( 'NONE',  ( 25.00000000000000400, 17.67999999999999300, 9.757819552369537900E-016 ) ) ;
#88 = CARTESIAN_POINT ( 'NONE',  ( 0.0000000000000000000, 0.0000000000000000000, 0.0000000000000000000 ) ) ;
#89 = DATE_AND_TIME ( #54, #93 ) ;
#90 = PERSON_AND_ORGANIZATION_ROLE ( 'classification_officer' ) ;
#91 = DIRECTION ( 'NONE',  ( 0.0000000000000000000, 0.0000000000000000000, 1.000000000000000000 ) ) ;
#92 = LINE ( 'NONE', #143, #148 ) ;
#93 = LOCAL_TIME ( 13, 30, 34.00000000000000000, #80 ) ;
#94 = DIRECTION ( 'NONE',  ( 0.0000000000000000000, 0.0000000000000000000, 1.000000000000000000 ) ) ;
#95 = CARTESIAN_POINT ( 'NONE',  ( -2.795512324255811800E-015, -17.68000000000000000, 1.084202172485504400E-015 ) ) ;
#96 = CARTESIAN_POINT ( 'NONE',  ( -2.795512324255811800E-015, -17.68000000000000000, 0.0000000000000000000 ) ) ;
#97 = ADVANCED_FACE ( 'NONE', ( #113 ), #126, .F. ) ;
#98 = CARTESIAN_POINT ( 'NONE',  ( -2.795512324255811800E-015, -17.67999999999999600, 1.517883041479706200E-015 ) ) ;
#99 = FACE_OUTER_BOUND ( 'NONE', #111, .T. ) ;
#100 = EDGE_CURVE ( 'NONE', #34, #25, #165, .T. ) ;
#101 = CC_DESIGN_PERSON_AND_ORGANIZATION_ASSIGNMENT ( #37, #167, ( #72 ) ) ;
#102 = EDGE_LOOP ( 'NONE', ( #109, #77, #5, #69 ) ) ;
#103 = CARTESIAN_POINT ( 'NONE',  ( -25.00000000000000000, -17.67999999999999300, 0.0000000000000000000 ) ) ;
#104 = APPROVAL_DATE_TIME ( #181, #51 ) ;
#105 = DIRECTION ( 'NONE',  ( 0.0000000000000000000, 0.0000000000000000000, 1.000000000000000000 ) ) ;
#106 = COORDINATED_UNIVERSAL_TIME_OFFSET ( 5, 0, .BEHIND. ) ;
#107 = VERTEX_POINT ( 'NONE', #96 ) ;
#108 = EDGE_CURVE ( 'NONE', #34, #137, #92, .T. ) ;
#109 = ORIENTED_EDGE ( 'NONE', *, *, #108, .F. ) ;
#110 = CARTESIAN_POINT ( 'NONE',  ( -25.00000000000000000, 17.68000000000000300, 0.0000000000000000000 ) ) ;
#111 = EDGE_LOOP ( 'NONE', ( #180, #149, #179, #2 ) ) ;
#112 = CARTESIAN_POINT ( 'NONE',  ( 4.326320823190003100E-015, 18.67999999999999600, 1.000000000000005100 ) ) ;
#113 = FACE_OUTER_BOUND ( 'NONE', #171, .T. ) ;
#114 = SHAPE_DEFINITION_REPRESENTATION ( #63, #138 ) ;
#115 = DIRECTION ( 'NONE',  ( 1.000000000000000000, 0.0000000000000000000, 0.0000000000000000000 ) ) ;
#116 = AXIS2_PLACEMENT_3D ( 'NONE', #127, #105, #115 ) ;
#117 = CARTESIAN_POINT ( 'NONE',  ( 4.326320823190003100E-015, 17.68000000000000000, 0.0000000000000000000 ) ) ;
#118 = APPLICATION_PROTOCOL_DEFINITION ( 'international standard', 'config_control_design', 1994, #177 ) ;
#119 = CARTESIAN_POINT ( 'NONE',  ( 4.326320823190003100E-015, 17.68000000000000000, 0.0000000000000000000 ) ) ;
#120 = APPROVAL_DATE_TIME ( #24, #43 ) ;
#121 = LOCAL_TIME ( 13, 30, 34.00000000000000000, #106 ) ;
#122 =( NAMED_UNIT ( * ) PLANE_ANGLE_UNIT ( ) SI_UNIT ( $, .RADIAN. ) );
#123 = EDGE_CURVE ( 'NONE', #137, #107, #12, .T. ) ;
#124 = CARTESIAN_POINT ( 'NONE',  ( 4.326320823190003100E-015, 18.68000000000000000, 1.000000000000005800 ) ) ;
#125 = MANIFOLD_SOLID_BREP ( 'Boss-Extrude1', #79 ) ;
#126 = PLANE ( 'NONE',  #71 ) ;
#127 = CARTESIAN_POINT ( 'NONE',  ( 0.0000000000000000000, 0.0000000000000000000, 0.0000000000000000000 ) ) ;
#128 = CC_DESIGN_SECURITY_CLASSIFICATION ( #64, ( #72 ) ) ;
#129 =( BOUNDED_CURVE ( )  B_SPLINE_CURVE ( 3, ( #21, #145, #82, #75 ),
 .UNSPECIFIED., .F., .T. ) 
 B_SPLINE_CURVE_WITH_KNOTS ( ( 4, 4 ),
 ( 0.0000000000000000000, 3.141592653589793100 ),
 .UNSPECIFIED. ) 
 CURVE ( )  GEOMETRIC_REPRESENTATION_ITEM ( )  RATIONAL_B_SPLINE_CURVE ( ( 1.000000000000000000, 0.3333333333333333700, 0.3333333333333333700, 1.000000000000000000 ) ) 
 REPRESENTATION_ITEM ( '' )  );
#130 = APPROVAL_STATUS ( 'not_yet_approved' ) ;
#131 = DATE_AND_TIME ( #174, #26 ) ;
#132 = PERSON_AND_ORGANIZATION_ROLE ( 'creator' ) ;
#133 = DATE_TIME_ROLE ( 'creation_date' ) ;
#134 = LOCAL_TIME ( 13, 30, 34.00000000000000000, #70 ) ;
#135 = APPROVAL_ROLE ( '' ) ;
#136 = APPROVAL ( #47, 'UNSPECIFIED' ) ;
#137 = VERTEX_POINT ( 'NONE', #117 ) ;
#138 = ADVANCED_BREP_SHAPE_REPRESENTATION ( 'Web Model 48915_48915', ( #125, #116 ), #175 ) ;
#139 = ORIENTED_EDGE ( 'NONE', *, *, #18, .T. ) ;
#140 = PERSON_AND_ORGANIZATION ( #40, #59 ) ;
#141 = CARTESIAN_POINT ( 'NONE',  ( 4.326320823190003100E-015, 18.67999999999999600, 1.000000000000005600 ) ) ;
#142 = CARTESIAN_POINT ( 'NONE',  ( 4.326320823190003100E-015, 17.68000000000000000, 0.0000000000000000000 ) ) ;
#143 = CARTESIAN_POINT ( 'NONE',  ( 4.326320823190003100E-015, 18.67999999999999600, 1.000000000000005100 ) ) ;
#144 = COORDINATED_UNIVERSAL_TIME_OFFSET ( 5, 0, .BEHIND. ) ;
#145 = CARTESIAN_POINT ( 'NONE',  ( 25.00000000000000000, -16.68000000000001000, 1.000000000000005100 ) ) ;
#146 = DIRECTION ( 'NONE',  ( -0.0000000000000000000, -0.7071067811865441300, -0.7071067811865510100 ) ) ;
#147 = PERSON_AND_ORGANIZATION ( #40, #59 ) ;
#148 = VECTOR ( 'NONE', #6, 1000.000000000000000 ) ;
#149 = ORIENTED_EDGE ( 'NONE', *, *, #108, .T. ) ;
#150 =( BOUNDED_SURFACE ( )  B_SPLINE_SURFACE ( 3, 1, ( 
 ( #17, #95 ),
 ( #61, #173 ),
 ( #31, #87 ),
 ( #141, #74 ) ),
 .UNSPECIFIED., .F., .F., .F. ) 
 B_SPLINE_SURFACE_WITH_KNOTS ( ( 4, 4 ),
 ( 2, 2 ),
 ( 0.0000000000000000000, 1.000000000000000000 ),
 ( 0.0000000000000000000, 1.000000000000000000 ),
 .UNSPECIFIED. ) 
 GEOMETRIC_REPRESENTATION_ITEM ( )  RATIONAL_B_SPLINE_SURFACE ( (
 ( 1.000000000000000000, 1.000000000000000000),
 ( 0.3333333333333333700, 0.3333333333333333700),
 ( 0.3333333333333333700, 0.3333333333333333700),
 ( 1.000000000000000000, 1.000000000000000000) ) ) 
 REPRESENTATION_ITEM ( '' )  SURFACE ( )  );
#151 = FACE_OUTER_BOUND ( 'NONE', #66, .T. ) ;
#152 = CARTESIAN_POINT ( 'NONE',  ( -25.00000000000000000, 17.68000000000001000, 1.463672932855430800E-015 ) ) ;
#153 = CALENDAR_DATE ( 2017, 6, 6 ) ;
#154 = CARTESIAN_POINT ( 'NONE',  ( -2.795512324255811800E-015, -16.68000000000000700, 1.000000000000005100 ) ) ;
#155 = APPROVAL_DATE_TIME ( #163, #136 ) ;
#156 = ADVANCED_FACE ( 'NONE', ( #151 ), #62, .T. ) ;
#157 = DIRECTION ( 'NONE',  ( 1.000000000000000000, 0.0000000000000000000, -0.0000000000000000000 ) ) ;
#158 = CARTESIAN_POINT ( 'NONE',  ( 4.326320823190003100E-015, 17.68000000000000300, 1.517883041479706200E-015 ) ) ;
#159 = EDGE_CURVE ( 'NONE', #107, #137, #161, .T. ) ;
#160 = CC_DESIGN_APPROVAL ( #136, ( #56 ) ) ;
#161 =( BOUNDED_CURVE ( )  B_SPLINE_CURVE ( 3, ( #168, #53, #169, #119 ),
 .UNSPECIFIED., .F., .F. ) 
 B_SPLINE_CURVE_WITH_KNOTS ( ( 4, 4 ),
 ( 0.0000000000000000000, 3.141592653589793100 ),
 .UNSPECIFIED. ) 
 CURVE ( )  GEOMETRIC_REPRESENTATION_ITEM ( )  RATIONAL_B_SPLINE_CURVE ( ( 1.000000000000000000, 0.3333333333333333700, 0.3333333333333333700, 1.000000000000000000 ) ) 
 REPRESENTATION_ITEM ( '' )  );
#162 = CARTESIAN_POINT ( 'NONE',  ( -2.795512324255811800E-015, -17.68000000000000000, 0.0000000000000000000 ) ) ;
#163 = DATE_AND_TIME ( #44, #134 ) ;
#164 = APPROVAL_ROLE ( '' ) ;
#165 =( BOUNDED_CURVE ( )  B_SPLINE_CURVE ( 3, ( #112, #29, #35, #154 ),
 .UNSPECIFIED., .F., .F. ) 
 B_SPLINE_CURVE_WITH_KNOTS ( ( 4, 4 ),
 ( 3.141592653589793100, 6.283185307179586200 ),
 .UNSPECIFIED. ) 
 CURVE ( )  GEOMETRIC_REPRESENTATION_ITEM ( )  RATIONAL_B_SPLINE_CURVE ( ( 1.000000000000000000, 0.3333333333333333700, 0.3333333333333333700, 1.000000000000000000 ) ) 
 REPRESENTATION_ITEM ( '' )  );
#166 = DIRECTION ( 'NONE',  ( 1.000000000000000000, 0.0000000000000000000, -0.0000000000000000000 ) ) ;
#167 = PERSON_AND_ORGANIZATION_ROLE ( 'creator' ) ;
#168 = CARTESIAN_POINT ( 'NONE',  ( -2.795512324255811800E-015, -17.68000000000000000, 0.0000000000000000000 ) ) ;
#169 = CARTESIAN_POINT ( 'NONE',  ( 25.00000000000000000, 17.67999999999999300, 0.0000000000000000000 ) ) ;
#170 = CC_DESIGN_PERSON_AND_ORGANIZATION_ASSIGNMENT ( #65, #8, ( #72 ) ) ;
#171 = EDGE_LOOP ( 'NONE', ( #176, #22 ) ) ;
#172 = FACE_OUTER_BOUND ( 'NONE', #102, .T. ) ;
#173 = CARTESIAN_POINT ( 'NONE',  ( 25.00000000000000000, -17.68000000000000300, 9.757819552369537900E-016 ) ) ;
#174 = CALENDAR_DATE ( 2017, 6, 6 ) ;
#175 =( GEOMETRIC_REPRESENTATION_CONTEXT ( 3 ) GLOBAL_UNCERTAINTY_ASSIGNED_CONTEXT ( ( #14 ) ) GLOBAL_UNIT_ASSIGNED_CONTEXT ( ( #48, #122, #81 ) ) REPRESENTATION_CONTEXT ( 'NONE', 'WORKASPACE' ) );
#176 = ORIENTED_EDGE ( 'NONE', *, *, #159, .F. ) ;
#177 = APPLICATION_CONTEXT ( 'configuration controlled 3d designs of mechanical parts and assemblies' ) ;
#178 = APPROVAL_PERSON_ORGANIZATION ( #147, #136, #135 ) ;
#179 = ORIENTED_EDGE ( 'NONE', *, *, #123, .T. ) ;
#180 = ORIENTED_EDGE ( 'NONE', *, *, #100, .F. ) ;
#181 = DATE_AND_TIME ( #52, #121 ) ;
#182 = CC_DESIGN_DATE_AND_TIME_ASSIGNMENT ( #89, #68, ( #64 ) ) ;
#183 = APPROVAL_STATUS ( 'not_yet_approved' ) ;
ENDSEC;
END-ISO-10303-21;
