ISO-10303-21;
HEADER;
FILE_DESCRIPTION (( 'STEP AP203' ),
    '1' );
FILE_NAME ('Web Model 84459.STEP',
    '2017-02-01T15:45:08',
    ( '' ),
    ( '' ),
    'SwSTEP 2.0',
    'SolidWorks 2016',
    '' );
FILE_SCHEMA (( 'CONFIG_CONTROL_DESIGN' ));
ENDSEC;

DATA;
#1 = ORIENTED_EDGE ( 'NONE', *, *, #121, .T. ) ;
#2 = CC_DESIGN_DATE_AND_TIME_ASSIGNMENT ( #57, #38, ( #58 ) ) ;
#3 = DIRECTION ( 'NONE',  ( 0.0000000000000000000, 0.0000000000000000000, 1.000000000000000000 ) ) ;
#4 = DIRECTION ( 'NONE',  ( 1.000000000000000000, 0.0000000000000000000, 0.0000000000000000000 ) ) ;
#5 = CARTESIAN_POINT ( 'NONE',  ( 0.0000000000000000000, 0.0000000000000000000, 0.0000000000000000000 ) ) ;
#6 = DIRECTION ( 'NONE',  ( 0.0000000000000000000, 0.0000000000000000000, 1.000000000000000000 ) ) ;
#7 = CC_DESIGN_SECURITY_CLASSIFICATION ( #58, ( #91 ) ) ;
#8 = AXIS2_PLACEMENT_3D ( 'NONE', #158, #84, #4 ) ;
#9 = APPROVAL_PERSON_ORGANIZATION ( #63, #72, #157 ) ;
#10 = CIRCLE ( 'NONE', #8, 2.500000000000000000 ) ;
#11 = LOCAL_TIME ( 10, 45, 8.000000000000000000, #167 ) ;
#12 =( LENGTH_UNIT ( ) NAMED_UNIT ( * ) SI_UNIT ( .MILLI., .METRE. ) );
#13 = CYLINDRICAL_SURFACE ( 'NONE', #113, 2.500000000000000000 ) ;
#14 = VERTEX_POINT ( 'NONE', #130 ) ;
#15 = DATE_TIME_ROLE ( 'creation_date' ) ;
#16 = PLANE ( 'NONE',  #64 ) ;
#17 = DIRECTION ( 'NONE',  ( 0.0000000000000000000, 0.0000000000000000000, 1.000000000000000000 ) ) ;
#18 = ADVANCED_FACE ( 'NONE', ( #93 ), #13, .T. ) ;
#19 = LOCAL_TIME ( 10, 45, 8.000000000000000000, #51 ) ;
#20 = CC_DESIGN_DATE_AND_TIME_ASSIGNMENT ( #24, #15, ( #47 ) ) ;
#21 = PERSON_AND_ORGANIZATION ( #142, #101 ) ;
#22 = PRODUCT ( 'Web Model 84459', 'Web Model 84459', '', ( #127 ) ) ;
#23 = APPROVAL_STATUS ( 'not_yet_approved' ) ;
#24 = DATE_AND_TIME ( #163, #11 ) ;
#25 = PERSON_AND_ORGANIZATION_ROLE ( 'classification_officer' ) ;
#26 = APPROVAL_PERSON_ORGANIZATION ( #60, #34, #166 ) ;
#27 = DIRECTION ( 'NONE',  ( 0.0000000000000000000, 0.0000000000000000000, 1.000000000000000000 ) ) ;
#28 = CC_DESIGN_APPROVAL ( #72, ( #58 ) ) ;
#29 = DIRECTION ( 'NONE',  ( 0.0000000000000000000, 0.0000000000000000000, 1.000000000000000000 ) ) ;
#30 = CALENDAR_DATE ( 2017, 1, 2 ) ;
#31 = AXIS2_PLACEMENT_3D ( 'NONE', #70, #169, #82 ) ;
#32 = PERSON_AND_ORGANIZATION ( #142, #101 ) ;
#33 = FACE_OUTER_BOUND ( 'NONE', #153, .T. ) ;
#34 = APPROVAL ( #172, 'UNSPECIFIED' ) ;
#35 = DIRECTION ( 'NONE',  ( 1.000000000000000000, 0.0000000000000000000, -0.0000000000000000000 ) ) ;
#36 = DIRECTION ( 'NONE',  ( 1.000000000000000000, 0.0000000000000000000, 0.0000000000000000000 ) ) ;
#37 = EDGE_CURVE ( 'NONE', #53, #44, #10, .T. ) ;
#38 = DATE_TIME_ROLE ( 'classification_date' ) ;
#39 = ORIENTED_EDGE ( 'NONE', *, *, #94, .T. ) ;
#40 = DIRECTION ( 'NONE',  ( 1.000000000000000000, 0.0000000000000000000, 0.0000000000000000000 ) ) ;
#41 = FACE_OUTER_BOUND ( 'NONE', #98, .T. ) ;
#42 = PERSON_AND_ORGANIZATION ( #142, #101 ) ;
#43 = APPROVAL ( #23, 'UNSPECIFIED' ) ;
#44 = VERTEX_POINT ( 'NONE', #95 ) ;
#45 = ORIENTED_EDGE ( 'NONE', *, *, #156, .F. ) ;
#46 = LINE ( 'NONE', #89, #62 ) ;
#47 = PRODUCT_DEFINITION ( 'UNKNOWN', '', #91, #136 ) ;
#48 = PERSON_AND_ORGANIZATION_ROLE ( 'creator' ) ;
#49 = DATE_AND_TIME ( #165, #141 ) ;
#50 = AXIS2_PLACEMENT_3D ( 'NONE', #146, #27, #40 ) ;
#51 = COORDINATED_UNIVERSAL_TIME_OFFSET ( 5, 0, .BEHIND. ) ;
#52 = DIRECTION ( 'NONE',  ( 0.0000000000000000000, 0.0000000000000000000, 1.000000000000000000 ) ) ;
#53 = VERTEX_POINT ( 'NONE', #147 ) ;
#54 = PLANE ( 'NONE',  #129 ) ;
#55 = DIRECTION ( 'NONE',  ( 0.0000000000000000000, 0.0000000000000000000, 1.000000000000000000 ) ) ;
#56 = DATE_AND_TIME ( #92, #19 ) ;
#57 = DATE_AND_TIME ( #74, #96 ) ;
#58 = SECURITY_CLASSIFICATION ( '', '', #140 ) ;
#59 = APPROVAL_DATE_TIME ( #49, #43 ) ;
#60 = PERSON_AND_ORGANIZATION ( #142, #101 ) ;
#61 = ORIENTED_EDGE ( 'NONE', *, *, #94, .F. ) ;
#62 = VECTOR ( 'NONE', #55, 1000.000000000000000 ) ;
#63 = PERSON_AND_ORGANIZATION ( #142, #101 ) ;
#64 = AXIS2_PLACEMENT_3D ( 'NONE', #148, #52, #35 ) ;
#65 = ORIENTED_EDGE ( 'NONE', *, *, #162, .F. ) ;
#66 = CARTESIAN_POINT ( 'NONE',  ( 0.0000000000000000000, 0.0000000000000000000, -1.000000000000000000 ) ) ;
#67 = CC_DESIGN_PERSON_AND_ORGANIZATION_ASSIGNMENT ( #21, #48, ( #47 ) ) ;
#68 = DIRECTION ( 'NONE',  ( 1.000000000000000000, 0.0000000000000000000, 0.0000000000000000000 ) ) ;
#69 = ADVANCED_FACE ( 'NONE', ( #90 ), #16, .F. ) ;
#70 = CARTESIAN_POINT ( 'NONE',  ( 0.0000000000000000000, 0.0000000000000000000, 0.0000000000000000000 ) ) ;
#71 = EDGE_CURVE ( 'NONE', #111, #14, #171, .T. ) ;
#72 = APPROVAL ( #175, 'UNSPECIFIED' ) ;
#73 = ORIENTED_EDGE ( 'NONE', *, *, #37, .F. ) ;
#74 = CALENDAR_DATE ( 2017, 1, 2 ) ;
#75 = LINE ( 'NONE', #99, #154 ) ;
#76 = CC_DESIGN_APPROVAL ( #43, ( #91 ) ) ;
#77 = APPLICATION_CONTEXT ( 'configuration controlled 3d designs of mechanical parts and assemblies' ) ;
#78 =( NAMED_UNIT ( * ) PLANE_ANGLE_UNIT ( ) SI_UNIT ( $, .RADIAN. ) );
#79 = COORDINATED_UNIVERSAL_TIME_OFFSET ( 5, 0, .BEHIND. ) ;
#80 = CIRCLE ( 'NONE', #31, 2.500000000000000000 ) ;
#81 = APPLICATION_PROTOCOL_DEFINITION ( 'international standard', 'config_control_design', 1994, #77 ) ;
#82 = DIRECTION ( 'NONE',  ( 1.000000000000000000, 0.0000000000000000000, 0.0000000000000000000 ) ) ;
#83 = ORIENTED_EDGE ( 'NONE', *, *, #162, .T. ) ;
#84 = DIRECTION ( 'NONE',  ( 0.0000000000000000000, 0.0000000000000000000, 1.000000000000000000 ) ) ;
#85 = COORDINATED_UNIVERSAL_TIME_OFFSET ( 5, 0, .BEHIND. ) ;
#86 = CARTESIAN_POINT ( 'NONE',  ( 0.0000000000000000000, 0.0000000000000000000, -1.000000000000000000 ) ) ;
#87 = CLOSED_SHELL ( 'NONE', ( #18, #134, #69, #102 ) ) ;
#88 = CARTESIAN_POINT ( 'NONE',  ( 0.0000000000000000000, 0.0000000000000000000, 0.0000000000000000000 ) ) ;
#89 = CARTESIAN_POINT ( 'NONE',  ( 2.500000000000000000, 0.0000000000000000000, -1.000000000000000000 ) ) ;
#90 = FACE_OUTER_BOUND ( 'NONE', #168, .T. ) ;
#91 = PRODUCT_DEFINITION_FORMATION_WITH_SPECIFIED_SOURCE ( 'ANY', '', #22, .NOT_KNOWN. ) ;
#92 = CALENDAR_DATE ( 2017, 1, 2 ) ;
#93 = FACE_OUTER_BOUND ( 'NONE', #118, .T. ) ;
#94 = EDGE_CURVE ( 'NONE', #14, #111, #159, .T. ) ;
#95 = CARTESIAN_POINT ( 'NONE',  ( 2.500000000000000000, 0.0000000000000000000, 0.0000000000000000000 ) ) ;
#96 = LOCAL_TIME ( 10, 45, 8.000000000000000000, #79 ) ;
#97 = DIRECTION ( 'NONE',  ( 0.0000000000000000000, 0.0000000000000000000, 1.000000000000000000 ) ) ;
#98 = EDGE_LOOP ( 'NONE', ( #45, #39, #1, #73 ) ) ;
#99 = CARTESIAN_POINT ( 'NONE',  ( -2.500000000000000000, 3.061616997868383100E-016, -1.000000000000000000 ) ) ;
#100 = CC_DESIGN_PERSON_AND_ORGANIZATION_ASSIGNMENT ( #128, #108, ( #91 ) ) ;
#101 = ORGANIZATION ( 'UNSPECIFIED', 'UNSPECIFIED', '' ) ;
#102 = ADVANCED_FACE ( 'NONE', ( #33 ), #54, .T. ) ;
#103 = LOCAL_TIME ( 10, 45, 8.000000000000000000, #151 ) ;
#104 = CYLINDRICAL_SURFACE ( 'NONE', #137, 2.500000000000000000 ) ;
#105 =( NAMED_UNIT ( * ) SI_UNIT ( $, .STERADIAN. ) SOLID_ANGLE_UNIT ( ) );
#106 = APPLICATION_PROTOCOL_DEFINITION ( 'international standard', 'config_control_design', 1994, #143 ) ;
#107 = ORIENTED_EDGE ( 'NONE', *, *, #37, .T. ) ;
#108 = PERSON_AND_ORGANIZATION_ROLE ( 'design_supplier' ) ;
#109 = PERSON_AND_ORGANIZATION ( #142, #101 ) ;
#110 = CC_DESIGN_PERSON_AND_ORGANIZATION_ASSIGNMENT ( #132, #25, ( #58 ) ) ;
#111 = VERTEX_POINT ( 'NONE', #112 ) ;
#112 = CARTESIAN_POINT ( 'NONE',  ( 2.500000000000000000, 0.0000000000000000000, -1.000000000000000000 ) ) ;
#113 = AXIS2_PLACEMENT_3D ( 'NONE', #86, #3, #36 ) ;
#114 = DIRECTION ( 'NONE',  ( 1.000000000000000000, 0.0000000000000000000, 0.0000000000000000000 ) ) ;
#115 = CARTESIAN_POINT ( 'NONE',  ( 0.0000000000000000000, 0.0000000000000000000, -1.000000000000000000 ) ) ;
#116 = ORIENTED_EDGE ( 'NONE', *, *, #71, .T. ) ;
#117 = ADVANCED_BREP_SHAPE_REPRESENTATION ( 'Web Model 84459', ( #131, #135 ), #161 ) ;
#118 = EDGE_LOOP ( 'NONE', ( #116, #164, #65, #139 ) ) ;
#119 = APPROVAL_PERSON_ORGANIZATION ( #109, #43, #122 ) ;
#120 = APPROVAL_DATE_TIME ( #56, #34 ) ;
#121 = EDGE_CURVE ( 'NONE', #111, #44, #46, .T. ) ;
#122 = APPROVAL_ROLE ( '' ) ;
#123 = PRODUCT_DEFINITION_SHAPE ( 'NONE', 'NONE',  #47 ) ;
#124 = UNCERTAINTY_MEASURE_WITH_UNIT (LENGTH_MEASURE( 1.000000000000000100E-005 ), #12, 'distance_accuracy_value', 'NONE');
#125 = AXIS2_PLACEMENT_3D ( 'NONE', #66, #17, #114 ) ;
#126 = PERSON_AND_ORGANIZATION_ROLE ( 'design_owner' ) ;
#127 = MECHANICAL_CONTEXT ( 'NONE', #143, 'mechanical' ) ;
#128 = PERSON_AND_ORGANIZATION ( #142, #101 ) ;
#129 = AXIS2_PLACEMENT_3D ( 'NONE', #88, #97, #150 ) ;
#130 = CARTESIAN_POINT ( 'NONE',  ( -2.500000000000000000, 3.061616997868383100E-016, -1.000000000000000000 ) ) ;
#131 = MANIFOLD_SOLID_BREP ( 'Extrude1', #87 ) ;
#132 = PERSON_AND_ORGANIZATION ( #142, #101 ) ;
#133 = DIRECTION ( 'NONE',  ( 0.0000000000000000000, 0.0000000000000000000, 1.000000000000000000 ) ) ;
#134 = ADVANCED_FACE ( 'NONE', ( #41 ), #104, .T. ) ;
#135 = AXIS2_PLACEMENT_3D ( 'NONE', #5, #29, #174 ) ;
#136 = DESIGN_CONTEXT ( 'detailed design', #77, 'design' ) ;
#137 = AXIS2_PLACEMENT_3D ( 'NONE', #115, #133, #68 ) ;
#138 = PERSON_AND_ORGANIZATION_ROLE ( 'creator' ) ;
#139 = ORIENTED_EDGE ( 'NONE', *, *, #121, .F. ) ;
#140 = SECURITY_CLASSIFICATION_LEVEL ( 'unclassified' ) ;
#141 = LOCAL_TIME ( 10, 45, 8.000000000000000000, #85 ) ;
#142 = PERSON ( 'UNSPECIFIED', 'UNSPECIFIED', 'UNSPECIFIED', ('UNSPECIFIED'), ('UNSPECIFIED'), ('UNSPECIFIED') ) ;
#143 = APPLICATION_CONTEXT ( 'configuration controlled 3d designs of mechanical parts and assemblies' ) ;
#144 = APPROVAL_DATE_TIME ( #170, #72 ) ;
#145 = SHAPE_DEFINITION_REPRESENTATION ( #123, #117 ) ;
#146 = CARTESIAN_POINT ( 'NONE',  ( 0.0000000000000000000, 0.0000000000000000000, -1.000000000000000000 ) ) ;
#147 = CARTESIAN_POINT ( 'NONE',  ( -2.500000000000000000, 3.061616997868383100E-016, 0.0000000000000000000 ) ) ;
#148 = CARTESIAN_POINT ( 'NONE',  ( 0.0000000000000000000, 0.0000000000000000000, -1.000000000000000000 ) ) ;
#149 = CC_DESIGN_PERSON_AND_ORGANIZATION_ASSIGNMENT ( #42, #126, ( #22 ) ) ;
#150 = DIRECTION ( 'NONE',  ( 1.000000000000000000, 0.0000000000000000000, -0.0000000000000000000 ) ) ;
#151 = COORDINATED_UNIVERSAL_TIME_OFFSET ( 5, 0, .BEHIND. ) ;
#152 = CC_DESIGN_PERSON_AND_ORGANIZATION_ASSIGNMENT ( #32, #138, ( #91 ) ) ;
#153 = EDGE_LOOP ( 'NONE', ( #83, #107 ) ) ;
#154 = VECTOR ( 'NONE', #6, 1000.000000000000000 ) ;
#155 = CC_DESIGN_APPROVAL ( #34, ( #47 ) ) ;
#156 = EDGE_CURVE ( 'NONE', #14, #53, #75, .T. ) ;
#157 = APPROVAL_ROLE ( '' ) ;
#158 = CARTESIAN_POINT ( 'NONE',  ( 0.0000000000000000000, 0.0000000000000000000, 0.0000000000000000000 ) ) ;
#159 = CIRCLE ( 'NONE', #50, 2.500000000000000000 ) ;
#160 = ORIENTED_EDGE ( 'NONE', *, *, #71, .F. ) ;
#161 =( GEOMETRIC_REPRESENTATION_CONTEXT ( 3 ) GLOBAL_UNCERTAINTY_ASSIGNED_CONTEXT ( ( #124 ) ) GLOBAL_UNIT_ASSIGNED_CONTEXT ( ( #12, #78, #105 ) ) REPRESENTATION_CONTEXT ( 'NONE', 'WORKASPACE' ) );
#162 = EDGE_CURVE ( 'NONE', #44, #53, #80, .T. ) ;
#163 = CALENDAR_DATE ( 2017, 1, 2 ) ;
#164 = ORIENTED_EDGE ( 'NONE', *, *, #156, .T. ) ;
#165 = CALENDAR_DATE ( 2017, 1, 2 ) ;
#166 = APPROVAL_ROLE ( '' ) ;
#167 = COORDINATED_UNIVERSAL_TIME_OFFSET ( 5, 0, .BEHIND. ) ;
#168 = EDGE_LOOP ( 'NONE', ( #160, #61 ) ) ;
#169 = DIRECTION ( 'NONE',  ( 0.0000000000000000000, 0.0000000000000000000, 1.000000000000000000 ) ) ;
#170 = DATE_AND_TIME ( #30, #103 ) ;
#171 = CIRCLE ( 'NONE', #125, 2.500000000000000000 ) ;
#172 = APPROVAL_STATUS ( 'not_yet_approved' ) ;
#173 = PRODUCT_RELATED_PRODUCT_CATEGORY ( 'detail', '', ( #22 ) ) ;
#174 = DIRECTION ( 'NONE',  ( 1.000000000000000000, 0.0000000000000000000, 0.0000000000000000000 ) ) ;
#175 = APPROVAL_STATUS ( 'not_yet_approved' ) ;
ENDSEC;
END-ISO-10303-21;
