ISO-10303-21;
HEADER;
FILE_DESCRIPTION (( 'STEP AP203' ),
    '1' );
FILE_NAME ('Web Model 19837_19845.step',
    '2022-04-06T15:00:44',
    ( 'WC' ),
    ( 'Windows Central' ),
    'SwSTEP 2.0',
    'SolidWorks 2021',
    '' );
FILE_SCHEMA (( 'CONFIG_CONTROL_DESIGN' ));
ENDSEC;

DATA;
#1 = AXIS2_PLACEMENT_3D ( 'NONE', #29, #32, #14 ) ;
#2 = PLANE ( 'NONE',  #1 ) ;
#3 = DIRECTION ( 'NONE',  ( 0.000000000000000000, 0.000000000000000000, 1.000000000000000000 ) ) ;
#4 = COORDINATED_UNIVERSAL_TIME_OFFSET ( 5, 0, .BEHIND. ) ;
#5 = APPROVAL_DATE_TIME ( #109, #100 ) ;
#6 = COORDINATED_UNIVERSAL_TIME_OFFSET ( 5, 0, .BEHIND. ) ;
#7 = CARTESIAN_POINT ( 'NONE',  ( 0.000000000000000000, 0.000000000000000000, 0.000000000000000000 ) ) ;
#8 = VERTEX_POINT ( 'NONE', #157 ) ;
#9 = DIRECTION ( 'NONE',  ( 0.000000000000000000, 0.000000000000000000, 1.000000000000000000 ) ) ;
#10 = VECTOR ( 'NONE', #57, 1000.000000000000000 ) ;
#11 = CARTESIAN_POINT ( 'NONE',  ( 12.50000000000000000, 1.530808498934191521E-15, 0.000000000000000000 ) ) ;
#12 = DIRECTION ( 'NONE',  ( 1.000000000000000000, 0.000000000000000000, 0.000000000000000000 ) ) ;
#13 = CC_DESIGN_PERSON_AND_ORGANIZATION_ASSIGNMENT ( #169, #73, ( #72 ) ) ;
#14 = DIRECTION ( 'NONE',  ( 1.000000000000000000, 0.000000000000000000, -0.000000000000000000 ) ) ;
#15 = APPLICATION_CONTEXT ( 'configuration controlled 3d designs of mechanical parts and assemblies' ) ;
#16 = ORGANIZATION ( 'UNSPECIFIED', 'UNSPECIFIED', '' ) ;
#17 = COORDINATED_UNIVERSAL_TIME_OFFSET ( 5, 0, .BEHIND. ) ;
#18 = ADVANCED_FACE ( 'NONE', ( #133 ), #39, .T. ) ;
#19 = PERSON_AND_ORGANIZATION ( #92, #16 ) ;
#20 = APPROVAL_DATE_TIME ( #98, #171 ) ;
#21 = APPROVAL_DATE_TIME ( #141, #108 ) ;
#22 = AXIS2_PLACEMENT_3D ( 'NONE', #106, #30, #68 ) ;
#23 = DIRECTION ( 'NONE',  ( -0.000000000000000000, -0.000000000000000000, -1.000000000000000000 ) ) ;
#24 = LINE ( 'NONE', #78, #63 ) ;
#25 = ORIENTED_EDGE ( 'NONE', *, *, #96, .F. ) ;
#26 = APPROVAL_PERSON_ORGANIZATION ( #47, #171, #49 ) ;
#27 = PRODUCT_RELATED_PRODUCT_CATEGORY ( 'detail', '', ( #146 ) ) ;
#28 = PRODUCT_DEFINITION_SHAPE ( 'NONE', 'NONE',  #168 ) ;
#29 = CARTESIAN_POINT ( 'NONE',  ( 0.000000000000000000, 0.000000000000000000, 1.000000000000000000 ) ) ;
#30 = DIRECTION ( 'NONE',  ( 0.000000000000000000, 0.000000000000000000, 1.000000000000000000 ) ) ;
#31 =( GEOMETRIC_REPRESENTATION_CONTEXT ( 3 ) GLOBAL_UNCERTAINTY_ASSIGNED_CONTEXT ( ( #130 ) ) GLOBAL_UNIT_ASSIGNED_CONTEXT ( ( #135, #66, #58 ) ) REPRESENTATION_CONTEXT ( 'NONE', 'WORKASPACE' ) );
#32 = DIRECTION ( 'NONE',  ( 0.000000000000000000, 0.000000000000000000, 1.000000000000000000 ) ) ;
#33 = CIRCLE ( 'NONE', #75, 12.50000000000000000 ) ;
#34 = COORDINATED_UNIVERSAL_TIME_OFFSET ( 5, 0, .BEHIND. ) ;
#35 = CALENDAR_DATE ( 2022, 6, 4 ) ;
#36 = CC_DESIGN_APPROVAL ( #108, ( #167 ) ) ;
#37 = MECHANICAL_CONTEXT ( 'NONE', #15, 'mechanical' ) ;
#38 = CC_DESIGN_DATE_AND_TIME_ASSIGNMENT ( #166, #137, ( #168 ) ) ;
#39 = CYLINDRICAL_SURFACE ( 'NONE', #160, 12.50000000000000000 ) ;
#40 = PERSON_AND_ORGANIZATION ( #92, #16 ) ;
#41 = ORIENTED_EDGE ( 'NONE', *, *, #97, .F. ) ;
#42 = DIRECTION ( 'NONE',  ( 1.000000000000000000, 0.000000000000000000, 0.000000000000000000 ) ) ;
#43 = CIRCLE ( 'NONE', #113, 12.50000000000000000 ) ;
#44 = APPROVAL_PERSON_ORGANIZATION ( #85, #108, #164 ) ;
#45 = PERSON_AND_ORGANIZATION_ROLE ( 'design_owner' ) ;
#46 = AXIS2_PLACEMENT_3D ( 'NONE', #119, #3, #42 ) ;
#47 = PERSON_AND_ORGANIZATION ( #92, #16 ) ;
#48 = PERSON_AND_ORGANIZATION ( #92, #16 ) ;
#49 = APPROVAL_ROLE ( '' ) ;
#50 = EDGE_CURVE ( 'NONE', #52, #127, #43, .T. ) ;
#51 = EDGE_CURVE ( 'NONE', #8, #103, #105, .T. ) ;
#52 = VERTEX_POINT ( 'NONE', #11 ) ;
#53 = ORIENTED_EDGE ( 'NONE', *, *, #107, .F. ) ;
#54 = LOCAL_TIME ( 11, 0, 44.00000000000000000, #17 ) ;
#55 = CARTESIAN_POINT ( 'NONE',  ( 0.000000000000000000, 0.000000000000000000, 1.000000000000000000 ) ) ;
#56 = PLANE ( 'NONE',  #22 ) ;
#57 = DIRECTION ( 'NONE',  ( -0.000000000000000000, -0.000000000000000000, -1.000000000000000000 ) ) ;
#58 =( NAMED_UNIT ( * ) SI_UNIT ( $, .STERADIAN. ) SOLID_ANGLE_UNIT ( ) );
#59 = CALENDAR_DATE ( 2022, 6, 4 ) ;
#60 = PERSON_AND_ORGANIZATION_ROLE ( 'classification_officer' ) ;
#61 = DIRECTION ( 'NONE',  ( 0.000000000000000000, 0.000000000000000000, 1.000000000000000000 ) ) ;
#62 = CARTESIAN_POINT ( 'NONE',  ( 0.000000000000000000, 0.000000000000000000, 0.000000000000000000 ) ) ;
#63 = VECTOR ( 'NONE', #131, 1000.000000000000000 ) ;
#64 = FACE_OUTER_BOUND ( 'NONE', #172, .T. ) ;
#65 = DIRECTION ( 'NONE',  ( -1.000000000000000000, 0.000000000000000000, 0.000000000000000000 ) ) ;
#66 =( NAMED_UNIT ( * ) PLANE_ANGLE_UNIT ( ) SI_UNIT ( $, .RADIAN. ) );
#67 = CC_DESIGN_PERSON_AND_ORGANIZATION_ASSIGNMENT ( #40, #174, ( #168 ) ) ;
#68 = DIRECTION ( 'NONE',  ( 1.000000000000000000, 0.000000000000000000, -0.000000000000000000 ) ) ;
#69 = CC_DESIGN_DATE_AND_TIME_ASSIGNMENT ( #140, #83, ( #167 ) ) ;
#70 = LOCAL_TIME ( 11, 0, 44.00000000000000000, #6 ) ;
#71 = CALENDAR_DATE ( 2022, 6, 4 ) ;
#72 = PRODUCT_DEFINITION_FORMATION_WITH_SPECIFIED_SOURCE ( 'ANY', '', #146, .NOT_KNOWN. ) ;
#73 = PERSON_AND_ORGANIZATION_ROLE ( 'creator' ) ;
#74 = APPROVAL_STATUS ( 'not_yet_approved' ) ;
#75 = AXIS2_PLACEMENT_3D ( 'NONE', #62, #173, #158 ) ;
#76 = ORIENTED_EDGE ( 'NONE', *, *, #51, .T. ) ;
#77 = ORIENTED_EDGE ( 'NONE', *, *, #50, .T. ) ;
#78 = CARTESIAN_POINT ( 'NONE',  ( 12.50000000000000000, 1.530808498934191521E-15, 1.000000000000000000 ) ) ;
#79 = ORIENTED_EDGE ( 'NONE', *, *, #175, .T. ) ;
#80 = DIRECTION ( 'NONE',  ( 1.000000000000000000, 0.000000000000000000, 0.000000000000000000 ) ) ;
#81 = FACE_OUTER_BOUND ( 'NONE', #143, .T. ) ;
#82 = CC_DESIGN_PERSON_AND_ORGANIZATION_ASSIGNMENT ( #125, #60, ( #167 ) ) ;
#83 = DATE_TIME_ROLE ( 'classification_date' ) ;
#84 = ADVANCED_BREP_SHAPE_REPRESENTATION ( 'Web Model 19837_19845', ( #136, #46 ), #31 ) ;
#85 = PERSON_AND_ORGANIZATION ( #92, #16 ) ;
#86 = CALENDAR_DATE ( 2022, 6, 4 ) ;
#87 = EDGE_LOOP ( 'NONE', ( #25, #41, #79, #142 ) ) ;
#88 = DIRECTION ( 'NONE',  ( 1.000000000000000000, 0.000000000000000000, 0.000000000000000000 ) ) ;
#89 = FACE_OUTER_BOUND ( 'NONE', #104, .T. ) ;
#90 = CARTESIAN_POINT ( 'NONE',  ( 0.000000000000000000, 0.000000000000000000, 1.000000000000000000 ) ) ;
#91 = ADVANCED_FACE ( 'NONE', ( #64 ), #116, .T. ) ;
#92 = PERSON ( 'UNSPECIFIED', 'UNSPECIFIED', 'UNSPECIFIED', ('UNSPECIFIED'), ('UNSPECIFIED'), ('UNSPECIFIED') ) ;
#93 = LINE ( 'NONE', #117, #10 ) ;
#94 = CARTESIAN_POINT ( 'NONE',  ( -12.50000000000000000, 0.000000000000000000, 0.000000000000000000 ) ) ;
#95 = CLOSED_SHELL ( 'NONE', ( #91, #18, #121, #132 ) ) ;
#96 = EDGE_CURVE ( 'NONE', #8, #52, #24, .T. ) ;
#97 = EDGE_CURVE ( 'NONE', #103, #8, #163, .T. ) ;
#98 = DATE_AND_TIME ( #71, #70 ) ;
#99 = PERSON_AND_ORGANIZATION ( #92, #16 ) ;
#100 = APPROVAL ( #138, 'UNSPECIFIED' ) ;
#101 = CC_DESIGN_APPROVAL ( #100, ( #168 ) ) ;
#102 = ORIENTED_EDGE ( 'NONE', *, *, #175, .F. ) ;
#103 = VERTEX_POINT ( 'NONE', #170 ) ;
#104 = EDGE_LOOP ( 'NONE', ( #161, #76 ) ) ;
#105 = CIRCLE ( 'NONE', #139, 12.50000000000000000 ) ;
#106 = CARTESIAN_POINT ( 'NONE',  ( 0.000000000000000000, 0.000000000000000000, 0.000000000000000000 ) ) ;
#107 = EDGE_CURVE ( 'NONE', #127, #52, #33, .T. ) ;
#108 = APPROVAL ( #122, 'UNSPECIFIED' ) ;
#109 = DATE_AND_TIME ( #59, #118 ) ;
#110 = COORDINATED_UNIVERSAL_TIME_OFFSET ( 5, 0, .BEHIND. ) ;
#111 = CARTESIAN_POINT ( 'NONE',  ( 0.000000000000000000, 0.000000000000000000, 1.000000000000000000 ) ) ;
#112 = ORIENTED_EDGE ( 'NONE', *, *, #50, .F. ) ;
#113 = AXIS2_PLACEMENT_3D ( 'NONE', #7, #61, #88 ) ;
#114 = LOCAL_TIME ( 11, 0, 44.00000000000000000, #110 ) ;
#115 = CARTESIAN_POINT ( 'NONE',  ( 0.000000000000000000, 0.000000000000000000, 1.000000000000000000 ) ) ;
#116 = CYLINDRICAL_SURFACE ( 'NONE', #126, 12.50000000000000000 ) ;
#117 = CARTESIAN_POINT ( 'NONE',  ( -12.50000000000000000, 0.000000000000000000, 1.000000000000000000 ) ) ;
#118 = LOCAL_TIME ( 11, 0, 44.00000000000000000, #4 ) ;
#119 = CARTESIAN_POINT ( 'NONE',  ( 0.000000000000000000, 0.000000000000000000, 0.000000000000000000 ) ) ;
#120 = CC_DESIGN_APPROVAL ( #171, ( #72 ) ) ;
#121 = ADVANCED_FACE ( 'NONE', ( #89 ), #2, .T. ) ;
#122 = APPROVAL_STATUS ( 'not_yet_approved' ) ;
#123 = APPROVAL_PERSON_ORGANIZATION ( #48, #100, #165 ) ;
#124 = PERSON_AND_ORGANIZATION_ROLE ( 'design_supplier' ) ;
#125 = PERSON_AND_ORGANIZATION ( #92, #16 ) ;
#126 = AXIS2_PLACEMENT_3D ( 'NONE', #115, #134, #65 ) ;
#127 = VERTEX_POINT ( 'NONE', #94 ) ;
#128 = CC_DESIGN_PERSON_AND_ORGANIZATION_ASSIGNMENT ( #19, #45, ( #146 ) ) ;
#129 = ORIENTED_EDGE ( 'NONE', *, *, #96, .T. ) ;
#130 = UNCERTAINTY_MEASURE_WITH_UNIT (LENGTH_MEASURE( 1.000000000000000082E-05 ), #135, 'distance_accuracy_value', 'NONE');
#131 = DIRECTION ( 'NONE',  ( -0.000000000000000000, -0.000000000000000000, -1.000000000000000000 ) ) ;
#132 = ADVANCED_FACE ( 'NONE', ( #81 ), #56, .F. ) ;
#133 = FACE_OUTER_BOUND ( 'NONE', #87, .T. ) ;
#134 = DIRECTION ( 'NONE',  ( -0.000000000000000000, -0.000000000000000000, -1.000000000000000000 ) ) ;
#135 =( LENGTH_UNIT ( ) NAMED_UNIT ( * ) SI_UNIT ( .MILLI., .METRE. ) );
#136 = MANIFOLD_SOLID_BREP ( 'Boss-Extrude1', #95 ) ;
#137 = DATE_TIME_ROLE ( 'creation_date' ) ;
#138 = APPROVAL_STATUS ( 'not_yet_approved' ) ;
#139 = AXIS2_PLACEMENT_3D ( 'NONE', #55, #145, #80 ) ;
#140 = DATE_AND_TIME ( #151, #114 ) ;
#141 = DATE_AND_TIME ( #35, #155 ) ;
#142 = ORIENTED_EDGE ( 'NONE', *, *, #107, .T. ) ;
#143 = EDGE_LOOP ( 'NONE', ( #53, #112 ) ) ;
#144 = DIRECTION ( 'NONE',  ( -1.000000000000000000, 0.000000000000000000, 0.000000000000000000 ) ) ;
#145 = DIRECTION ( 'NONE',  ( 0.000000000000000000, 0.000000000000000000, 1.000000000000000000 ) ) ;
#146 = PRODUCT ( 'Web Model 19837_19845', 'Web Model 19837_19845', '', ( #37 ) ) ;
#147 = CC_DESIGN_PERSON_AND_ORGANIZATION_ASSIGNMENT ( #99, #124, ( #72 ) ) ;
#148 = AXIS2_PLACEMENT_3D ( 'NONE', #111, #9, #12 ) ;
#149 = SECURITY_CLASSIFICATION_LEVEL ( 'unclassified' ) ;
#150 = APPLICATION_PROTOCOL_DEFINITION ( 'international standard', 'config_control_design', 1994, #152 ) ;
#151 = CALENDAR_DATE ( 2022, 6, 4 ) ;
#152 = APPLICATION_CONTEXT ( 'configuration controlled 3d designs of mechanical parts and assemblies' ) ;
#153 = CC_DESIGN_SECURITY_CLASSIFICATION ( #167, ( #72 ) ) ;
#154 = SHAPE_DEFINITION_REPRESENTATION ( #28, #84 ) ;
#155 = LOCAL_TIME ( 11, 0, 44.00000000000000000, #34 ) ;
#156 = DESIGN_CONTEXT ( 'detailed design', #152, 'design' ) ;
#157 = CARTESIAN_POINT ( 'NONE',  ( 12.50000000000000000, 1.530808498934191521E-15, 1.000000000000000000 ) ) ;
#158 = DIRECTION ( 'NONE',  ( 1.000000000000000000, 0.000000000000000000, 0.000000000000000000 ) ) ;
#159 = ORIENTED_EDGE ( 'NONE', *, *, #51, .F. ) ;
#160 = AXIS2_PLACEMENT_3D ( 'NONE', #90, #23, #144 ) ;
#161 = ORIENTED_EDGE ( 'NONE', *, *, #97, .T. ) ;
#162 = APPLICATION_PROTOCOL_DEFINITION ( 'international standard', 'config_control_design', 1994, #15 ) ;
#163 = CIRCLE ( 'NONE', #148, 12.50000000000000000 ) ;
#164 = APPROVAL_ROLE ( '' ) ;
#165 = APPROVAL_ROLE ( '' ) ;
#166 = DATE_AND_TIME ( #86, #54 ) ;
#167 = SECURITY_CLASSIFICATION ( '', '', #149 ) ;
#168 = PRODUCT_DEFINITION ( 'UNKNOWN', '', #72, #156 ) ;
#169 = PERSON_AND_ORGANIZATION ( #92, #16 ) ;
#170 = CARTESIAN_POINT ( 'NONE',  ( -12.50000000000000000, 0.000000000000000000, 1.000000000000000000 ) ) ;
#171 = APPROVAL ( #74, 'UNSPECIFIED' ) ;
#172 = EDGE_LOOP ( 'NONE', ( #159, #129, #77, #102 ) ) ;
#173 = DIRECTION ( 'NONE',  ( 0.000000000000000000, 0.000000000000000000, 1.000000000000000000 ) ) ;
#174 = PERSON_AND_ORGANIZATION_ROLE ( 'creator' ) ;
#175 = EDGE_CURVE ( 'NONE', #103, #127, #93, .T. ) ;
ENDSEC;
END-ISO-10303-21;
