ISO-10303-21;
HEADER;
FILE_DESCRIPTION (( 'STEP AP203' ),
    '1' );
FILE_NAME ('Web Model 43848_43852.step',
    '2018-03-12T20:50:50',
    ( '' ),
    ( '' ),
    'SwSTEP 2.0',
    'SolidWorks 2016',
    '' );
FILE_SCHEMA (( 'CONFIG_CONTROL_DESIGN' ));
ENDSEC;

DATA;
#1 = CARTESIAN_POINT ( 'NONE',  ( 4.750000000000000000, -12.50000000000000000, 12.50000000000000000 ) ) ;
#2 = VECTOR ( 'NONE', #208, 1000.000000000000000 ) ;
#3 = ORIENTED_EDGE ( 'NONE', *, *, #108, .F. ) ;
#4 = LOCAL_TIME ( 16, 50, 50.00000000000000000, #105 ) ;
#5 = VECTOR ( 'NONE', #142, 1000.000000000000000 ) ;
#6 = LINE ( 'NONE', #199, #111 ) ;
#7 = CARTESIAN_POINT ( 'NONE',  ( 4.750000000000000000, -12.50000000000000000, 12.50000000000000000 ) ) ;
#8 = CC_DESIGN_APPROVAL ( #16, ( #107 ) ) ;
#9 = DATE_AND_TIME ( #154, #4 ) ;
#10 = APPLICATION_CONTEXT ( 'configuration controlled 3d designs of mechanical parts and assemblies' ) ;
#11 = PERSON_AND_ORGANIZATION_ROLE ( 'design_supplier' ) ;
#12 = ORIENTED_EDGE ( 'NONE', *, *, #150, .F. ) ;
#13 = UNCERTAINTY_MEASURE_WITH_UNIT (LENGTH_MEASURE( 1.000000000000000100E-005 ), #209, 'distance_accuracy_value', 'NONE');
#14 = CC_DESIGN_PERSON_AND_ORGANIZATION_ASSIGNMENT ( #81, #11, ( #177 ) ) ;
#15 = LINE ( 'NONE', #1, #152 ) ;
#16 = APPROVAL ( #210, 'UNSPECIFIED' ) ;
#17 = APPROVAL_PERSON_ORGANIZATION ( #101, #16, #30 ) ;
#18 = VERTEX_POINT ( 'NONE', #180 ) ;
#19 = PERSON_AND_ORGANIZATION ( #219, #137 ) ;
#20 = DIRECTION ( 'NONE',  ( 0.0000000000000000000, 0.0000000000000000000, -1.000000000000000000 ) ) ;
#21 = ORIENTED_EDGE ( 'NONE', *, *, #162, .T. ) ;
#22 = ORIENTED_EDGE ( 'NONE', *, *, #148, .F. ) ;
#23 = DIRECTION ( 'NONE',  ( -0.0000000000000000000, 1.000000000000000000, -0.0000000000000000000 ) ) ;
#24 = CC_DESIGN_PERSON_AND_ORGANIZATION_ASSIGNMENT ( #151, #27, ( #202 ) ) ;
#25 =( NAMED_UNIT ( * ) PLANE_ANGLE_UNIT ( ) SI_UNIT ( $, .RADIAN. ) );
#26 = CALENDAR_DATE ( 2018, 12, 3 ) ;
#27 = PERSON_AND_ORGANIZATION_ROLE ( 'design_owner' ) ;
#28 = LINE ( 'NONE', #143, #164 ) ;
#29 = DIRECTION ( 'NONE',  ( 1.000000000000000000, 0.0000000000000000000, 0.0000000000000000000 ) ) ;
#30 = APPROVAL_ROLE ( '' ) ;
#31 = EDGE_LOOP ( 'NONE', ( #120, #22, #3, #188 ) ) ;
#32 = APPROVAL_DATE_TIME ( #70, #16 ) ;
#33 = EDGE_LOOP ( 'NONE', ( #228, #221, #68, #50 ) ) ;
#34 = SECURITY_CLASSIFICATION ( '', '', #94 ) ;
#35 = CC_DESIGN_DATE_AND_TIME_ASSIGNMENT ( #9, #215, ( #34 ) ) ;
#36 = DIRECTION ( 'NONE',  ( 0.0000000000000000000, 2.775557561562891400E-016, -1.000000000000000000 ) ) ;
#37 = LINE ( 'NONE', #149, #2 ) ;
#38 = LINE ( 'NONE', #54, #178 ) ;
#39 = PERSON_AND_ORGANIZATION ( #219, #137 ) ;
#40 = CARTESIAN_POINT ( 'NONE',  ( -4.750000000000000000, 12.50000000000000000, -12.50000000000000000 ) ) ;
#41 =( GEOMETRIC_REPRESENTATION_CONTEXT ( 3 ) GLOBAL_UNCERTAINTY_ASSIGNED_CONTEXT ( ( #13 ) ) GLOBAL_UNIT_ASSIGNED_CONTEXT ( ( #209, #25, #103 ) ) REPRESENTATION_CONTEXT ( 'NONE', 'WORKASPACE' ) );
#42 = LOCAL_TIME ( 16, 50, 50.00000000000000000, #174 ) ;
#43 = APPROVAL_ROLE ( '' ) ;
#44 = EDGE_CURVE ( 'NONE', #18, #91, #15, .T. ) ;
#45 = CLOSED_SHELL ( 'NONE', ( #47, #216, #156, #93, #234, #134 ) ) ;
#46 = FACE_OUTER_BOUND ( 'NONE', #87, .T. ) ;
#47 = ADVANCED_FACE ( 'NONE', ( #61 ), #184, .F. ) ;
#48 = ORIENTED_EDGE ( 'NONE', *, *, #125, .F. ) ;
#49 = APPROVAL_STATUS ( 'not_yet_approved' ) ;
#50 = ORIENTED_EDGE ( 'NONE', *, *, #212, .T. ) ;
#51 = CARTESIAN_POINT ( 'NONE',  ( 4.750000000000000000, 12.49999999999999300, 12.50000000000000000 ) ) ;
#52 = CC_DESIGN_APPROVAL ( #165, ( #34 ) ) ;
#53 = VERTEX_POINT ( 'NONE', #72 ) ;
#54 = CARTESIAN_POINT ( 'NONE',  ( 4.750000000000000000, 12.50000000000000000, -12.50000000000000000 ) ) ;
#55 = VERTEX_POINT ( 'NONE', #51 ) ;
#56 = PLANE ( 'NONE',  #63 ) ;
#57 = DIRECTION ( 'NONE',  ( 1.000000000000000000, 0.0000000000000000000, 0.0000000000000000000 ) ) ;
#58 = DIRECTION ( 'NONE',  ( -0.0000000000000000000, 0.0000000000000000000, 1.000000000000000000 ) ) ;
#59 = DIRECTION ( 'NONE',  ( -1.000000000000000000, -0.0000000000000000000, -0.0000000000000000000 ) ) ;
#60 = COORDINATED_UNIVERSAL_TIME_OFFSET ( 5, 0, .BEHIND. ) ;
#61 = FACE_OUTER_BOUND ( 'NONE', #33, .T. ) ;
#62 = DIRECTION ( 'NONE',  ( 0.0000000000000000000, 0.0000000000000000000, 1.000000000000000000 ) ) ;
#63 = AXIS2_PLACEMENT_3D ( 'NONE', #205, #57, #187 ) ;
#64 = LINE ( 'NONE', #189, #124 ) ;
#65 = ORIENTED_EDGE ( 'NONE', *, *, #85, .F. ) ;
#66 = APPROVAL_DATE_TIME ( #158, #165 ) ;
#67 = PRODUCT_RELATED_PRODUCT_CATEGORY ( 'detail', '', ( #202 ) ) ;
#68 = ORIENTED_EDGE ( 'NONE', *, *, #192, .F. ) ;
#69 = AXIS2_PLACEMENT_3D ( 'NONE', #99, #146, #89 ) ;
#70 = DATE_AND_TIME ( #26, #110 ) ;
#71 = VERTEX_POINT ( 'NONE', #79 ) ;
#72 = CARTESIAN_POINT ( 'NONE',  ( -4.750000000000000000, 12.49999999999999300, 12.50000000000000000 ) ) ;
#73 = ORIENTED_EDGE ( 'NONE', *, *, #235, .F. ) ;
#74 = ORIENTED_EDGE ( 'NONE', *, *, #150, .T. ) ;
#75 = CARTESIAN_POINT ( 'NONE',  ( 4.750000000000000000, 12.49999999999999300, 12.50000000000000000 ) ) ;
#76 = DIRECTION ( 'NONE',  ( 0.0000000000000000000, 0.0000000000000000000, -1.000000000000000000 ) ) ;
#77 = CARTESIAN_POINT ( 'NONE',  ( 0.0000000000000000000, 0.0000000000000000000, 0.0000000000000000000 ) ) ;
#78 = ORIENTED_EDGE ( 'NONE', *, *, #192, .T. ) ;
#79 = CARTESIAN_POINT ( 'NONE',  ( -4.750000000000000000, -12.50000000000000000, -12.50000000000000000 ) ) ;
#80 = AXIS2_PLACEMENT_3D ( 'NONE', #127, #58, #229 ) ;
#81 = PERSON_AND_ORGANIZATION ( #219, #137 ) ;
#82 = PLANE ( 'NONE',  #220 ) ;
#83 = DIRECTION ( 'NONE',  ( -0.0000000000000000000, 1.000000000000000000, -0.0000000000000000000 ) ) ;
#84 = LINE ( 'NONE', #75, #5 ) ;
#85 = EDGE_CURVE ( 'NONE', #96, #197, #6, .T. ) ;
#86 = FACE_OUTER_BOUND ( 'NONE', #201, .T. ) ;
#87 = EDGE_LOOP ( 'NONE', ( #175, #200, #73, #160 ) ) ;
#88 = CC_DESIGN_PERSON_AND_ORGANIZATION_ASSIGNMENT ( #237, #118, ( #177 ) ) ;
#89 = DIRECTION ( 'NONE',  ( 0.0000000000000000000, 0.0000000000000000000, -1.000000000000000000 ) ) ;
#90 = LINE ( 'NONE', #204, #132 ) ;
#91 = VERTEX_POINT ( 'NONE', #166 ) ;
#92 = APPROVAL_ROLE ( '' ) ;
#93 = ADVANCED_FACE ( 'NONE', ( #46 ), #82, .F. ) ;
#94 = SECURITY_CLASSIFICATION_LEVEL ( 'unclassified' ) ;
#95 = PERSON_AND_ORGANIZATION ( #219, #137 ) ;
#96 = VERTEX_POINT ( 'NONE', #203 ) ;
#97 = DIRECTION ( 'NONE',  ( -1.000000000000000000, -0.0000000000000000000, -0.0000000000000000000 ) ) ;
#98 = CC_DESIGN_DATE_AND_TIME_ASSIGNMENT ( #224, #213, ( #107 ) ) ;
#99 = CARTESIAN_POINT ( 'NONE',  ( 4.750000000000000000, 0.0000000000000000000, 0.0000000000000000000 ) ) ;
#100 = ORIENTED_EDGE ( 'NONE', *, *, #148, .T. ) ;
#101 = PERSON_AND_ORGANIZATION ( #219, #137 ) ;
#102 = PLANE ( 'NONE',  #80 ) ;
#103 =( NAMED_UNIT ( * ) SI_UNIT ( $, .STERADIAN. ) SOLID_ANGLE_UNIT ( ) );
#104 = AXIS2_PLACEMENT_3D ( 'NONE', #181, #183, #223 ) ;
#105 = COORDINATED_UNIVERSAL_TIME_OFFSET ( 5, 0, .BEHIND. ) ;
#106 = PERSON_AND_ORGANIZATION_ROLE ( 'creator' ) ;
#107 = PRODUCT_DEFINITION ( 'UNKNOWN', '', #177, #182 ) ;
#108 = EDGE_CURVE ( 'NONE', #18, #214, #157, .T. ) ;
#109 = PLANE ( 'NONE',  #69 ) ;
#110 = LOCAL_TIME ( 16, 50, 50.00000000000000000, #193 ) ;
#111 = VECTOR ( 'NONE', #97, 1000.000000000000000 ) ;
#112 = CARTESIAN_POINT ( 'NONE',  ( 4.750000000000000000, 12.49999999999999300, 12.50000000000000000 ) ) ;
#113 = DIRECTION ( 'NONE',  ( 0.0000000000000000000, 0.0000000000000000000, -1.000000000000000000 ) ) ;
#114 = DIRECTION ( 'NONE',  ( 0.0000000000000000000, -1.000000000000000000, -2.775557561562891400E-016 ) ) ;
#115 = LOCAL_TIME ( 16, 50, 50.00000000000000000, #60 ) ;
#116 = MANIFOLD_SOLID_BREP ( 'Boss-Extrude1', #45 ) ;
#117 = PRODUCT_DEFINITION_SHAPE ( 'NONE', 'NONE',  #107 ) ;
#118 = PERSON_AND_ORGANIZATION_ROLE ( 'creator' ) ;
#119 = EDGE_LOOP ( 'NONE', ( #129, #179, #168, #48 ) ) ;
#120 = ORIENTED_EDGE ( 'NONE', *, *, #125, .T. ) ;
#121 = CARTESIAN_POINT ( 'NONE',  ( -4.750000000000000000, 12.50000000000000000, -12.50000000000000000 ) ) ;
#122 = CALENDAR_DATE ( 2018, 12, 3 ) ;
#123 = DIRECTION ( 'NONE',  ( -0.0000000000000000000, -2.775557561562891400E-016, 1.000000000000000000 ) ) ;
#124 = VECTOR ( 'NONE', #123, 1000.000000000000000 ) ;
#125 = EDGE_CURVE ( 'NONE', #91, #71, #28, .T. ) ;
#126 = ORIENTED_EDGE ( 'NONE', *, *, #235, .T. ) ;
#127 = CARTESIAN_POINT ( 'NONE',  ( 4.750000000000000000, 12.50000000000000000, -12.50000000000000000 ) ) ;
#128 = VECTOR ( 'NONE', #147, 1000.000000000000000 ) ;
#129 = ORIENTED_EDGE ( 'NONE', *, *, #217, .F. ) ;
#130 = MECHANICAL_CONTEXT ( 'NONE', #10, 'mechanical' ) ;
#131 = CALENDAR_DATE ( 2018, 12, 3 ) ;
#132 = VECTOR ( 'NONE', #140, 1000.000000000000000 ) ;
#133 = LOCAL_TIME ( 16, 50, 50.00000000000000000, #191 ) ;
#134 = ADVANCED_FACE ( 'NONE', ( #195 ), #56, .F. ) ;
#135 = PERSON_AND_ORGANIZATION ( #219, #137 ) ;
#136 = DIRECTION ( 'NONE',  ( -1.000000000000000000, -0.0000000000000000000, -0.0000000000000000000 ) ) ;
#137 = ORGANIZATION ( 'UNSPECIFIED', 'UNSPECIFIED', '' ) ;
#138 = VECTOR ( 'NONE', #59, 1000.000000000000000 ) ;
#139 = EDGE_LOOP ( 'NONE', ( #21, #65, #12, #100 ) ) ;
#140 = DIRECTION ( 'NONE',  ( -1.000000000000000000, -0.0000000000000000000, -0.0000000000000000000 ) ) ;
#141 = DIRECTION ( 'NONE',  ( -1.000000000000000000, 0.0000000000000000000, -0.0000000000000000000 ) ) ;
#142 = DIRECTION ( 'NONE',  ( 0.0000000000000000000, -1.000000000000000000, 0.0000000000000000000 ) ) ;
#143 = CARTESIAN_POINT ( 'NONE',  ( -4.750000000000000000, -12.50000000000000000, 12.50000000000000000 ) ) ;
#144 = ADVANCED_BREP_SHAPE_REPRESENTATION ( 'Web Model 43848_43852', ( #116, #190 ), #41 ) ;
#145 = CALENDAR_DATE ( 2018, 12, 3 ) ;
#146 = DIRECTION ( 'NONE',  ( 1.000000000000000000, 0.0000000000000000000, 0.0000000000000000000 ) ) ;
#147 = DIRECTION ( 'NONE',  ( -0.0000000000000000000, -2.775557561562891400E-016, 1.000000000000000000 ) ) ;
#148 = EDGE_CURVE ( 'NONE', #214, #71, #206, .T. ) ;
#149 = CARTESIAN_POINT ( 'NONE',  ( -4.750000000000000000, 12.49999999999999300, 12.50000000000000000 ) ) ;
#150 = EDGE_CURVE ( 'NONE', #214, #96, #38, .T. ) ;
#151 = PERSON_AND_ORGANIZATION ( #219, #137 ) ;
#152 = VECTOR ( 'NONE', #136, 1000.000000000000000 ) ;
#153 = ORIENTED_EDGE ( 'NONE', *, *, #108, .T. ) ;
#154 = CALENDAR_DATE ( 2018, 12, 3 ) ;
#155 = CC_DESIGN_PERSON_AND_ORGANIZATION_ASSIGNMENT ( #95, #106, ( #107 ) ) ;
#156 = ADVANCED_FACE ( 'NONE', ( #236 ), #102, .F. ) ;
#157 = LINE ( 'NONE', #7, #218 ) ;
#158 = DATE_AND_TIME ( #131, #133 ) ;
#159 = APPROVAL_PERSON_ORGANIZATION ( #19, #233, #92 ) ;
#160 = ORIENTED_EDGE ( 'NONE', *, *, #85, .T. ) ;
#161 = CARTESIAN_POINT ( 'NONE',  ( 4.750000000000000000, -12.50000000000000000, -12.50000000000000000 ) ) ;
#162 = EDGE_CURVE ( 'NONE', #71, #197, #186, .T. ) ;
#163 = FACE_OUTER_BOUND ( 'NONE', #31, .T. ) ;
#164 = VECTOR ( 'NONE', #113, 1000.000000000000000 ) ;
#165 = APPROVAL ( #198, 'UNSPECIFIED' ) ;
#166 = CARTESIAN_POINT ( 'NONE',  ( -4.750000000000000000, -12.50000000000000000, 12.50000000000000000 ) ) ;
#167 = CARTESIAN_POINT ( 'NONE',  ( 4.750000000000000000, -12.50000000000000000, -12.50000000000000000 ) ) ;
#168 = ORIENTED_EDGE ( 'NONE', *, *, #162, .F. ) ;
#169 = CARTESIAN_POINT ( 'NONE',  ( 4.750000000000000000, 12.49999999999999300, 12.50000000000000000 ) ) ;
#170 = APPLICATION_CONTEXT ( 'configuration controlled 3d designs of mechanical parts and assemblies' ) ;
#171 = CC_DESIGN_PERSON_AND_ORGANIZATION_ASSIGNMENT ( #135, #173, ( #34 ) ) ;
#172 = EDGE_CURVE ( 'NONE', #197, #53, #64, .T. ) ;
#173 = PERSON_AND_ORGANIZATION_ROLE ( 'classification_officer' ) ;
#174 = COORDINATED_UNIVERSAL_TIME_OFFSET ( 5, 0, .BEHIND. ) ;
#175 = ORIENTED_EDGE ( 'NONE', *, *, #172, .T. ) ;
#176 = DATE_AND_TIME ( #145, #115 ) ;
#177 = PRODUCT_DEFINITION_FORMATION_WITH_SPECIFIED_SOURCE ( 'ANY', '', #202, .NOT_KNOWN. ) ;
#178 = VECTOR ( 'NONE', #83, 1000.000000000000000 ) ;
#179 = ORIENTED_EDGE ( 'NONE', *, *, #172, .F. ) ;
#180 = CARTESIAN_POINT ( 'NONE',  ( 4.750000000000000000, -12.50000000000000000, 12.50000000000000000 ) ) ;
#181 = CARTESIAN_POINT ( 'NONE',  ( 4.750000000000000000, -12.50000000000000000, 12.50000000000000000 ) ) ;
#182 = DESIGN_CONTEXT ( 'detailed design', #170, 'design' ) ;
#183 = DIRECTION ( 'NONE',  ( -0.0000000000000000000, 1.000000000000000000, 0.0000000000000000000 ) ) ;
#184 = PLANE ( 'NONE',  #196 ) ;
#185 = APPROVAL_PERSON_ORGANIZATION ( #39, #165, #43 ) ;
#186 = LINE ( 'NONE', #40, #225 ) ;
#187 = DIRECTION ( 'NONE',  ( 0.0000000000000000000, 0.0000000000000000000, -1.000000000000000000 ) ) ;
#188 = ORIENTED_EDGE ( 'NONE', *, *, #44, .T. ) ;
#189 = CARTESIAN_POINT ( 'NONE',  ( -4.750000000000000000, 12.49999999999999300, 12.50000000000000000 ) ) ;
#190 = AXIS2_PLACEMENT_3D ( 'NONE', #77, #62, #29 ) ;
#191 = COORDINATED_UNIVERSAL_TIME_OFFSET ( 5, 0, .BEHIND. ) ;
#192 = EDGE_CURVE ( 'NONE', #55, #18, #84, .T. ) ;
#193 = COORDINATED_UNIVERSAL_TIME_OFFSET ( 5, 0, .BEHIND. ) ;
#194 = SHAPE_DEFINITION_REPRESENTATION ( #117, #144 ) ;
#195 = FACE_OUTER_BOUND ( 'NONE', #119, .T. ) ;
#196 = AXIS2_PLACEMENT_3D ( 'NONE', #112, #76, #141 ) ;
#197 = VERTEX_POINT ( 'NONE', #121 ) ;
#198 = APPROVAL_STATUS ( 'not_yet_approved' ) ;
#199 = CARTESIAN_POINT ( 'NONE',  ( 4.750000000000000000, 12.50000000000000000, -12.50000000000000000 ) ) ;
#200 = ORIENTED_EDGE ( 'NONE', *, *, #212, .F. ) ;
#201 = EDGE_LOOP ( 'NONE', ( #78, #153, #74, #126 ) ) ;
#202 = PRODUCT ( 'Web Model 43848_43852', 'Web Model 43848_43852', '', ( #130 ) ) ;
#203 = CARTESIAN_POINT ( 'NONE',  ( 4.750000000000000000, 12.50000000000000000, -12.50000000000000000 ) ) ;
#204 = CARTESIAN_POINT ( 'NONE',  ( 4.750000000000000000, 12.49999999999999300, 12.50000000000000000 ) ) ;
#205 = CARTESIAN_POINT ( 'NONE',  ( -4.750000000000000000, 0.0000000000000000000, 0.0000000000000000000 ) ) ;
#206 = LINE ( 'NONE', #167, #138 ) ;
#207 = CC_DESIGN_SECURITY_CLASSIFICATION ( #34, ( #177 ) ) ;
#208 = DIRECTION ( 'NONE',  ( 0.0000000000000000000, -1.000000000000000000, 0.0000000000000000000 ) ) ;
#209 =( LENGTH_UNIT ( ) NAMED_UNIT ( * ) SI_UNIT ( .MILLI., .METRE. ) );
#210 = APPROVAL_STATUS ( 'not_yet_approved' ) ;
#211 = APPLICATION_PROTOCOL_DEFINITION ( 'international standard', 'config_control_design', 1994, #10 ) ;
#212 = EDGE_CURVE ( 'NONE', #55, #53, #90, .T. ) ;
#213 = DATE_TIME_ROLE ( 'creation_date' ) ;
#214 = VERTEX_POINT ( 'NONE', #161 ) ;
#215 = DATE_TIME_ROLE ( 'classification_date' ) ;
#216 = ADVANCED_FACE ( 'NONE', ( #163 ), #222, .F. ) ;
#217 = EDGE_CURVE ( 'NONE', #53, #91, #37, .T. ) ;
#218 = VECTOR ( 'NONE', #20, 1000.000000000000000 ) ;
#219 = PERSON ( 'UNSPECIFIED', 'UNSPECIFIED', 'UNSPECIFIED', ('UNSPECIFIED'), ('UNSPECIFIED'), ('UNSPECIFIED') ) ;
#220 = AXIS2_PLACEMENT_3D ( 'NONE', #227, #114, #36 ) ;
#221 = ORIENTED_EDGE ( 'NONE', *, *, #44, .F. ) ;
#222 = PLANE ( 'NONE',  #104 ) ;
#223 = DIRECTION ( 'NONE',  ( 0.0000000000000000000, -0.0000000000000000000, 1.000000000000000000 ) ) ;
#224 = DATE_AND_TIME ( #122, #42 ) ;
#225 = VECTOR ( 'NONE', #23, 1000.000000000000000 ) ;
#226 = APPROVAL_DATE_TIME ( #176, #233 ) ;
#227 = CARTESIAN_POINT ( 'NONE',  ( 4.750000000000000000, 12.49999999999999300, 12.50000000000000000 ) ) ;
#228 = ORIENTED_EDGE ( 'NONE', *, *, #217, .T. ) ;
#229 = DIRECTION ( 'NONE',  ( 1.000000000000000000, 0.0000000000000000000, 0.0000000000000000000 ) ) ;
#230 = APPLICATION_PROTOCOL_DEFINITION ( 'international standard', 'config_control_design', 1994, #170 ) ;
#231 = CC_DESIGN_APPROVAL ( #233, ( #177 ) ) ;
#232 = LINE ( 'NONE', #169, #128 ) ;
#233 = APPROVAL ( #49, 'UNSPECIFIED' ) ;
#234 = ADVANCED_FACE ( 'NONE', ( #86 ), #109, .T. ) ;
#235 = EDGE_CURVE ( 'NONE', #96, #55, #232, .T. ) ;
#236 = FACE_OUTER_BOUND ( 'NONE', #139, .T. ) ;
#237 = PERSON_AND_ORGANIZATION ( #219, #137 ) ;
ENDSEC;
END-ISO-10303-21;
