ISO-10303-21;
HEADER;
FILE_DESCRIPTION (( 'STEP AP203' ),
    '1' );
FILE_NAME ('24948-E0W.STEP',
    '2012-10-01T14:04:51',
    ( 'Admin' ),
    ( 'Thorlabs, Inc.' ),
    'SwSTEP 2.0',
    'SolidWorks 2011',
    '' );
FILE_SCHEMA (( 'CONFIG_CONTROL_DESIGN' ));
ENDSEC;

DATA;
#1 = ORIENTED_EDGE ( 'NONE', *, *, #6, .T. ) ;
#2 = ORIENTED_EDGE ( 'NONE', *, *, #8, .T. ) ;
#3 = ORIENTED_EDGE ( 'NONE', *, *, #16, .T. ) ;
#4 = ORIENTED_EDGE ( 'NONE', *, *, #51, .F. ) ;
#5 = ORIENTED_EDGE ( 'NONE', *, *, #6, .F. ) ;
#6 = EDGE_CURVE ( 'NONE', #45, #54, #163, .T. ) ;
#7 = ORIENTED_EDGE ( 'NONE', *, *, #108, .F. ) ;
#8 = EDGE_CURVE ( 'NONE', #38, #45, #161, .T. ) ;
#9 = ORIENTED_EDGE ( 'NONE', *, *, #56, .T. ) ;
#10 = ADVANCED_FACE ( 'NONE', ( #117 ), #111, .T. ) ;
#11 = EDGE_CURVE ( 'NONE', #49, #32, #159, .T. ) ;
#12 = ORIENTED_EDGE ( 'NONE', *, *, #69, .F. ) ;
#13 = EDGE_LOOP ( 'NONE', ( #7, #35, #31, #14 ) ) ;
#14 = ORIENTED_EDGE ( 'NONE', *, *, #36, .F. ) ;
#15 = ADVANCED_FACE ( 'NONE', ( #189 ), #118, .T. ) ;
#16 = EDGE_CURVE ( 'NONE', #62, #63, #193, .T. ) ;
#17 = APPROVAL_DATE_TIME ( #224, #230 ) ;
#18 = ORIENTED_EDGE ( 'NONE', *, *, #16, .F. ) ;
#19 = ORIENTED_EDGE ( 'NONE', *, *, #36, .T. ) ;
#20 = CC_DESIGN_APPROVAL ( #230, ( #233 ) ) ;
#21 = CLOSED_SHELL ( 'NONE', ( #37, #172, #129, #53, #50, #28, #15, #10, #33 ) ) ;
#22 = EDGE_LOOP ( 'NONE', ( #26, #18 ) ) ;
#23 = ORIENTED_EDGE ( 'NONE', *, *, #11, .F. ) ;
#24 = EDGE_LOOP ( 'NONE', ( #12, #3, #9, #23 ) ) ;
#25 = ORIENTED_EDGE ( 'NONE', *, *, #47, .T. ) ;
#26 = ORIENTED_EDGE ( 'NONE', *, *, #59, .F. ) ;
#27 = ORIENTED_EDGE ( 'NONE', *, *, #109, .F. ) ;
#28 = ADVANCED_FACE ( 'NONE', ( #182 ), #181, .F. ) ;
#29 = ORIENTED_EDGE ( 'NONE', *, *, #8, .F. ) ;
#30 = ORIENTED_EDGE ( 'NONE', *, *, #125, .T. ) ;
#31 = ORIENTED_EDGE ( 'NONE', *, *, #126, .T. ) ;
#32 = VERTEX_POINT ( 'NONE', #165 ) ;
#33 = ADVANCED_FACE ( 'NONE', ( #210 ), #177, .T. ) ;
#34 = EDGE_LOOP ( 'NONE', ( #27, #29, #25, #19 ) ) ;
#35 = ORIENTED_EDGE ( 'NONE', *, *, #11, .T. ) ;
#36 = EDGE_CURVE ( 'NONE', #166, #44, #211, .T. ) ;
#37 = ADVANCED_FACE ( 'NONE', ( #173 ), #205, .T. ) ;
#38 = VERTEX_POINT ( 'NONE', #197 ) ;
#39 = EDGE_CURVE ( 'NONE', #45, #38, #195, .T. ) ;
#40 = MANIFOLD_SOLID_BREP ( '24975-001-1-solid1', #21 ) ;
#41 = DATE_AND_TIME ( #64, #65 ) ;
#42 = EDGE_LOOP ( 'NONE', ( #48, #58, #57, #60 ) ) ;
#43 = EDGE_CURVE ( 'NONE', #32, #49, #150, .T. ) ;
#44 = VERTEX_POINT ( 'NONE', #151 ) ;
#45 = VERTEX_POINT ( 'NONE', #196 ) ;
#46 = DATE_TIME_ROLE ( 'creation_date' ) ;
#47 = EDGE_CURVE ( 'NONE', #38, #166, #152, .T. ) ;
#48 = ORIENTED_EDGE ( 'NONE', *, *, #59, .T. ) ;
#49 = VERTEX_POINT ( 'NONE', #102 ) ;
#50 = ADVANCED_FACE ( 'NONE', ( #101 ), #93, .T. ) ;
#51 = EDGE_CURVE ( 'NONE', #38, #54, #157, .T. ) ;
#52 = EDGE_LOOP ( 'NONE', ( #55, #71, #5 ) ) ;
#53 = ADVANCED_FACE ( 'NONE', ( #104 ), #90, .T. ) ;
#54 = VERTEX_POINT ( 'NONE', #80 ) ;
#55 = ORIENTED_EDGE ( 'NONE', *, *, #39, .T. ) ;
#56 = EDGE_CURVE ( 'NONE', #63, #32, #78, .T. ) ;
#57 = ORIENTED_EDGE ( 'NONE', *, *, #43, .F. ) ;
#58 = ORIENTED_EDGE ( 'NONE', *, *, #69, .T. ) ;
#59 = EDGE_CURVE ( 'NONE', #63, #62, #75, .T. ) ;
#60 = ORIENTED_EDGE ( 'NONE', *, *, #56, .F. ) ;
#61 = EDGE_LOOP ( 'NONE', ( #4, #2, #1 ) ) ;
#62 = VERTEX_POINT ( 'NONE', #86 ) ;
#63 = VERTEX_POINT ( 'NONE', #79 ) ;
#64 = CALENDAR_DATE ( 2012, 1, 10 ) ;
#65 = LOCAL_TIME ( 10, 4, 51.00000000000000000, #66 ) ;
#66 = COORDINATED_UNIVERSAL_TIME_OFFSET ( 5, 0, .BEHIND. ) ;
#67 = CC_DESIGN_PERSON_AND_ORGANIZATION_ASSIGNMENT ( #70, #72, ( #233 ) ) ;
#68 = ORIENTED_EDGE ( 'NONE', *, *, #125, .F. ) ;
#69 = EDGE_CURVE ( 'NONE', #62, #49, #81, .T. ) ;
#70 = PERSON_AND_ORGANIZATION ( #241, #240 ) ;
#71 = ORIENTED_EDGE ( 'NONE', *, *, #51, .T. ) ;
#72 = PERSON_AND_ORGANIZATION_ROLE ( 'creator' ) ;
#73 = CARTESIAN_POINT ( 'NONE',  ( 0.0000000000000000000, 0.0000000000000000000, -2.170055327027987000 ) ) ;
#74 = AXIS2_PLACEMENT_3D ( 'NONE', #73, #148, #147 ) ;
#75 = CIRCLE ( 'NONE', #74, 6.208578643762690400 ) ;
#76 = DIRECTION ( 'NONE',  ( 0.7071067811865584500, 0.0000000000000000000, 0.7071067811865366900 ) ) ;
#77 = VECTOR ( 'NONE', #76, 999.9999999999998900 ) ;
#78 = LINE ( 'NONE', #94, #77 ) ;
#79 = CARTESIAN_POINT ( 'NONE',  ( 6.208578643762690400, 0.0000000000000000000, -2.170055327027987000 ) ) ;
#80 = CARTESIAN_POINT ( 'NONE',  ( 0.0000000000000000000, 0.0000000000000000000, 2.169944672972011500 ) ) ;
#81 = LINE ( 'NONE', #92, #141 ) ;
#82 = CARTESIAN_POINT ( 'NONE',  ( 0.0000000000000000000, 0.0000000000000000000, -7.030054837833728400 ) ) ;
#83 = DIRECTION ( 'NONE',  ( -1.000000000000000000, 1.224646799147353200E-016, 0.0000000000000000000 ) ) ;
#84 = DIRECTION ( 'NONE',  ( 1.224646799147353200E-016, 1.000000000000000000, 0.0000000000000000000 ) ) ;
#85 = AXIS2_PLACEMENT_3D ( 'NONE', #89, #84, #83 ) ;
#86 = CARTESIAN_POINT ( 'NONE',  ( -6.208578643762690400, 7.689911568962143300E-016, -2.170055327027987000 ) ) ;
#87 = DIRECTION ( 'NONE',  ( 1.000000000000000000, 0.0000000000000000000, 0.0000000000000000000 ) ) ;
#88 = DIRECTION ( 'NONE',  ( -0.0000000000000000000, -0.0000000000000000000, 1.000000000000000000 ) ) ;
#89 = CARTESIAN_POINT ( 'NONE',  ( -0.003000195677703605700, 3.674180033515444900E-019, -7.030054837833728400 ) ) ;
#90 = TOROIDAL_SURFACE ( 'NONE', #105, 0.003000195677703605700, 9.199999999999999300 ) ;
#91 = DIRECTION ( 'NONE',  ( -0.7071067811865584500, 8.659560562355066000E-017, 0.7071067811865366900 ) ) ;
#92 = CARTESIAN_POINT ( 'NONE',  ( -6.208578643762690400, 7.603315963338593500E-016, -2.170055327027987000 ) ) ;
#93 = TOROIDAL_SURFACE ( 'NONE', #95, 0.003000195677703605700, 9.199999999999999300 ) ;
#94 = CARTESIAN_POINT ( 'NONE',  ( 6.208578643762690400, 0.0000000000000000000, -2.170055327027987000 ) ) ;
#95 = AXIS2_PLACEMENT_3D ( 'NONE', #103, #88, #87 ) ;
#96 = DIRECTION ( 'NONE',  ( -0.7071067811865410200, 0.0000000000000000000, -0.7071067811865540100 ) ) ;
#97 = VECTOR ( 'NONE', #96, 1000.000000000000000 ) ;
#98 = CARTESIAN_POINT ( 'NONE',  ( -6.349999999999999600, 0.0000000000000000000, -0.3795106372779921100 ) ) ;
#99 = DIRECTION ( 'NONE',  ( 1.000000000000000000, 0.0000000000000000000, 0.0000000000000000000 ) ) ;
#100 = DIRECTION ( 'NONE',  ( -0.0000000000000000000, -0.0000000000000000000, 1.000000000000000000 ) ) ;
#101 = FACE_OUTER_BOUND ( 'NONE', #61, .T. ) ;
#102 = CARTESIAN_POINT ( 'NONE',  ( -6.350000000000000500, 7.776507174585693100E-016, -2.028633970790680900 ) ) ;
#103 = CARTESIAN_POINT ( 'NONE',  ( 0.0000000000000000000, 0.0000000000000000000, -7.030054837833728400 ) ) ;
#104 = FACE_OUTER_BOUND ( 'NONE', #52, .T. ) ;
#105 = AXIS2_PLACEMENT_3D ( 'NONE', #82, #100, #99 ) ;
#106 = ORIENTED_EDGE ( 'NONE', *, *, #108, .T. ) ;
#107 = ORIENTED_EDGE ( 'NONE', *, *, #43, .T. ) ;
#108 = EDGE_CURVE ( 'NONE', #49, #166, #136, .T. ) ;
#109 = EDGE_CURVE ( 'NONE', #45, #44, #272, .T. ) ;
#110 = EDGE_LOOP ( 'NONE', ( #107, #106, #68, #127 ) ) ;
#111 = CYLINDRICAL_SURFACE ( 'NONE', #116, 6.349999999999999600 ) ;
#112 = DIRECTION ( 'NONE',  ( 0.0000000000000000000, 0.0000000000000000000, -1.000000000000000000 ) ) ;
#113 = DIRECTION ( 'NONE',  ( 0.0000000000000000000, -1.000000000000000000, 0.0000000000000000000 ) ) ;
#114 = CARTESIAN_POINT ( 'NONE',  ( 0.003000195677703605700, 0.0000000000000000000, -7.030054837833728400 ) ) ;
#115 = AXIS2_PLACEMENT_3D ( 'NONE', #123, #122, #121 ) ;
#116 = AXIS2_PLACEMENT_3D ( 'NONE', #119, #162, #191 ) ;
#117 = FACE_OUTER_BOUND ( 'NONE', #13, .T. ) ;
#118 = CONICAL_SURFACE ( 'NONE', #124, 6.208578643762690400, 0.7853981633974636000 ) ;
#119 = CARTESIAN_POINT ( 'NONE',  ( 0.0000000000000000000, 0.0000000000000000000, 25.59425907430118500 ) ) ;
#120 = AXIS2_PLACEMENT_3D ( 'NONE', #214, #164, #184 ) ;
#121 = DIRECTION ( 'NONE',  ( 1.000000000000000000, 0.0000000000000000000, 0.0000000000000000000 ) ) ;
#122 = DIRECTION ( 'NONE',  ( -0.0000000000000000000, -0.0000000000000000000, 1.000000000000000000 ) ) ;
#123 = CARTESIAN_POINT ( 'NONE',  ( 0.0000000000000000000, 0.0000000000000000000, -0.2380892810406823900 ) ) ;
#124 = AXIS2_PLACEMENT_3D ( 'NONE', #190, #179, #178 ) ;
#125 = EDGE_CURVE ( 'NONE', #44, #166, #256, .T. ) ;
#126 = EDGE_CURVE ( 'NONE', #32, #44, #269, .T. ) ;
#127 = ORIENTED_EDGE ( 'NONE', *, *, #126, .F. ) ;
#128 = EDGE_LOOP ( 'NONE', ( #171, #167, #30, #194 ) ) ;
#129 = ADVANCED_FACE ( 'NONE', ( #270 ), #258, .T. ) ;
#130 = CC_DESIGN_APPROVAL ( #145, ( #149 ) ) ;
#131 = APPROVAL_DATE_TIME ( #132, #145 ) ;
#132 = DATE_AND_TIME ( #133, #137 ) ;
#133 = CALENDAR_DATE ( 2012, 1, 10 ) ;
#134 = DIRECTION ( 'NONE',  ( -0.0000000000000000000, -0.0000000000000000000, 1.000000000000000000 ) ) ;
#135 = VECTOR ( 'NONE', #134, 1000.000000000000000 ) ;
#136 = LINE ( 'NONE', #143, #135 ) ;
#137 = LOCAL_TIME ( 10, 4, 51.00000000000000000, #138 ) ;
#138 = COORDINATED_UNIVERSAL_TIME_OFFSET ( 5, 0, .BEHIND. ) ;
#139 = APPROVAL_PERSON_ORGANIZATION ( #142, #145, #140 ) ;
#140 = APPROVAL_ROLE ( '' ) ;
#141 = VECTOR ( 'NONE', #91, 999.9999999999998900 ) ;
#142 = PERSON_AND_ORGANIZATION ( #241, #240 ) ;
#143 = CARTESIAN_POINT ( 'NONE',  ( -6.349999999999999600, 7.776507174585692200E-016, 25.59425907430118500 ) ) ;
#144 = CC_DESIGN_DATE_AND_TIME_ASSIGNMENT ( #41, #46, ( #233 ) ) ;
#145 = APPROVAL ( #146, 'UNSPECIFIED' ) ;
#146 = APPROVAL_STATUS ( 'not_yet_approved' ) ;
#147 = DIRECTION ( 'NONE',  ( 1.000000000000000000, 0.0000000000000000000, 0.0000000000000000000 ) ) ;
#148 = DIRECTION ( 'NONE',  ( -0.0000000000000000000, -0.0000000000000000000, 1.000000000000000000 ) ) ;
#149 = PRODUCT_DEFINITION_FORMATION_WITH_SPECIFIED_SOURCE ( 'ANY', '', #242, .NOT_KNOWN. ) ;
#150 = CIRCLE ( 'NONE', #208, 6.350000000000000500 ) ;
#151 = CARTESIAN_POINT ( 'NONE',  ( 6.349999999999999600, 0.0000000000000000000, -0.3795106372779921100 ) ) ;
#152 = LINE ( 'NONE', #98, #97 ) ;
#153 = DIRECTION ( 'NONE',  ( 1.000000000000000000, 0.0000000000000000000, 0.0000000000000000000 ) ) ;
#154 = DIRECTION ( 'NONE',  ( 1.000000000000000000, 0.0000000000000000000, 0.0000000000000000000 ) ) ;
#155 = DIRECTION ( 'NONE',  ( -0.0000000000000000000, -0.0000000000000000000, 1.000000000000000000 ) ) ;
#156 = CARTESIAN_POINT ( 'NONE',  ( 0.0000000000000000000, 0.0000000000000000000, -0.2380892810406823900 ) ) ;
#157 = CIRCLE ( 'NONE', #85, 9.199999999999999300 ) ;
#158 = DIRECTION ( 'NONE',  ( -0.0000000000000000000, -0.0000000000000000000, 1.000000000000000000 ) ) ;
#159 = CIRCLE ( 'NONE', #188, 6.350000000000000500 ) ;
#160 = AXIS2_PLACEMENT_3D ( 'NONE', #114, #113, #112 ) ;
#161 = CIRCLE ( 'NONE', #115, 6.208578643762693100 ) ;
#162 = DIRECTION ( 'NONE',  ( -0.0000000000000000000, -0.0000000000000000000, 1.000000000000000000 ) ) ;
#163 = CIRCLE ( 'NONE', #160, 9.199999999999997500 ) ;
#164 = DIRECTION ( 'NONE',  ( 0.0000000000000000000, 0.0000000000000000000, -1.000000000000000000 ) ) ;
#165 = CARTESIAN_POINT ( 'NONE',  ( 6.350000000000000500, 0.0000000000000000000, -2.028633970790680900 ) ) ;
#166 = VERTEX_POINT ( 'NONE', #248 ) ;
#167 = ORIENTED_EDGE ( 'NONE', *, *, #109, .T. ) ;
#168 = CC_DESIGN_PERSON_AND_ORGANIZATION_ASSIGNMENT ( #170, #169, ( #149 ) ) ;
#169 = PERSON_AND_ORGANIZATION_ROLE ( 'creator' ) ;
#170 = PERSON_AND_ORGANIZATION ( #241, #240 ) ;
#171 = ORIENTED_EDGE ( 'NONE', *, *, #39, .F. ) ;
#172 = ADVANCED_FACE ( 'NONE', ( #218 ), #263, .T. ) ;
#173 = FACE_OUTER_BOUND ( 'NONE', #128, .T. ) ;
#174 = AXIS2_PLACEMENT_3D ( 'NONE', #183, #213, #212 ) ;
#175 = DIRECTION ( 'NONE',  ( 1.000000000000000000, 0.0000000000000000000, 0.0000000000000000000 ) ) ;
#176 = AXIS2_PLACEMENT_3D ( 'NONE', #180, #158, #175 ) ;
#177 = CONICAL_SURFACE ( 'NONE', #120, 6.349999999999999600, 0.7853981633974391800 ) ;
#178 = DIRECTION ( 'NONE',  ( 1.000000000000000000, 0.0000000000000000000, 0.0000000000000000000 ) ) ;
#179 = DIRECTION ( 'NONE',  ( -0.0000000000000000000, -0.0000000000000000000, 1.000000000000000000 ) ) ;
#180 = CARTESIAN_POINT ( 'NONE',  ( 0.0000000000000000000, 0.0000000000000000000, -2.170055327027987000 ) ) ;
#181 = PLANE ( 'NONE',  #174 ) ;
#182 = FACE_OUTER_BOUND ( 'NONE', #22, .T. ) ;
#183 = CARTESIAN_POINT ( 'NONE',  ( 0.0000000000000000000, 0.0000000000000000000, -2.170055327027988800 ) ) ;
#184 = DIRECTION ( 'NONE',  ( -1.000000000000000000, 0.0000000000000000000, 0.0000000000000000000 ) ) ;
#185 = AXIS2_PLACEMENT_3D ( 'NONE', #204, #199, #198 ) ;
#186 = DIRECTION ( 'NONE',  ( 1.000000000000000000, 0.0000000000000000000, 0.0000000000000000000 ) ) ;
#187 = DIRECTION ( 'NONE',  ( -0.0000000000000000000, -0.0000000000000000000, 1.000000000000000000 ) ) ;
#188 = AXIS2_PLACEMENT_3D ( 'NONE', #192, #187, #186 ) ;
#189 = FACE_OUTER_BOUND ( 'NONE', #24, .T. ) ;
#190 = CARTESIAN_POINT ( 'NONE',  ( 0.0000000000000000000, 0.0000000000000000000, -2.170055327027987000 ) ) ;
#191 = DIRECTION ( 'NONE',  ( 1.000000000000000000, 0.0000000000000000000, 0.0000000000000000000 ) ) ;
#192 = CARTESIAN_POINT ( 'NONE',  ( 0.0000000000000000000, 0.0000000000000000000, -2.028633970790680900 ) ) ;
#193 = CIRCLE ( 'NONE', #176, 6.208578643762690400 ) ;
#194 = ORIENTED_EDGE ( 'NONE', *, *, #47, .F. ) ;
#195 = CIRCLE ( 'NONE', #209, 6.208578643762693100 ) ;
#196 = CARTESIAN_POINT ( 'NONE',  ( 6.208578643762693100, 0.0000000000000000000, -0.2380892810406828300 ) ) ;
#197 = CARTESIAN_POINT ( 'NONE',  ( -6.208578643762693100, 7.603315963338598400E-016, -0.2380892810406828300 ) ) ;
#198 = DIRECTION ( 'NONE',  ( 1.000000000000000000, 0.0000000000000000000, 0.0000000000000000000 ) ) ;
#199 = DIRECTION ( 'NONE',  ( -0.0000000000000000000, -0.0000000000000000000, 1.000000000000000000 ) ) ;
#200 = CARTESIAN_POINT ( 'NONE',  ( 0.0000000000000000000, 0.0000000000000000000, -2.028633970790680900 ) ) ;
#201 = DIRECTION ( 'NONE',  ( -0.0000000000000000000, -0.0000000000000000000, 1.000000000000000000 ) ) ;
#202 = DIRECTION ( 'NONE',  ( 0.0000000000000000000, 0.0000000000000000000, -1.000000000000000000 ) ) ;
#203 = CARTESIAN_POINT ( 'NONE',  ( 0.0000000000000000000, 0.0000000000000000000, -0.3795106372779921100 ) ) ;
#204 = CARTESIAN_POINT ( 'NONE',  ( 0.0000000000000000000, 0.0000000000000000000, -0.3795106372779921100 ) ) ;
#205 = CONICAL_SURFACE ( 'NONE', #207, 6.349999999999999600, 0.7853981633974391800 ) ;
#206 = DIRECTION ( 'NONE',  ( -1.000000000000000000, 0.0000000000000000000, 0.0000000000000000000 ) ) ;
#207 = AXIS2_PLACEMENT_3D ( 'NONE', #203, #202, #206 ) ;
#208 = AXIS2_PLACEMENT_3D ( 'NONE', #200, #201, #153 ) ;
#209 = AXIS2_PLACEMENT_3D ( 'NONE', #156, #155, #154 ) ;
#210 = FACE_OUTER_BOUND ( 'NONE', #34, .T. ) ;
#211 = CIRCLE ( 'NONE', #185, 6.349999999999999600 ) ;
#212 = DIRECTION ( 'NONE',  ( 1.000000000000000000, 0.0000000000000000000, 0.0000000000000000000 ) ) ;
#213 = DIRECTION ( 'NONE',  ( 0.0000000000000000000, -0.0000000000000000000, 1.000000000000000000 ) ) ;
#214 = CARTESIAN_POINT ( 'NONE',  ( 0.0000000000000000000, 0.0000000000000000000, -0.3795106372779921100 ) ) ;
#215 = DIRECTION ( 'NONE',  ( 0.7071067811865410200, 8.659560562354854000E-017, -0.7071067811865540100 ) ) ;
#216 = VECTOR ( 'NONE', #215, 1000.000000000000000 ) ;
#217 = AXIS2_PLACEMENT_3D ( 'NONE', #219, #266, #265 ) ;
#218 = FACE_OUTER_BOUND ( 'NONE', #110, .T. ) ;
#219 = CARTESIAN_POINT ( 'NONE',  ( 0.0000000000000000000, 0.0000000000000000000, 25.59425907430118500 ) ) ;
#220 = DIRECTION ( 'NONE',  ( 1.000000000000000000, 0.0000000000000000000, 0.0000000000000000000 ) ) ;
#221 = DIRECTION ( 'NONE',  ( 0.0000000000000000000, 0.0000000000000000000, 1.000000000000000000 ) ) ;
#222 = AXIS2_PLACEMENT_3D ( 'NONE', #264, #221, #220 ) ;
#223 = APPLICATION_CONTEXT ( 'configuration controlled 3d designs of mechanical parts and assemblies' ) ;
#224 = DATE_AND_TIME ( #225, #226 ) ;
#225 = CALENDAR_DATE ( 2012, 1, 10 ) ;
#226 = LOCAL_TIME ( 10, 4, 51.00000000000000000, #227 ) ;
#227 = COORDINATED_UNIVERSAL_TIME_OFFSET ( 5, 0, .BEHIND. ) ;
#228 = APPROVAL_PERSON_ORGANIZATION ( #232, #230, #229 ) ;
#229 = APPROVAL_ROLE ( '' ) ;
#230 = APPROVAL ( #231, 'UNSPECIFIED' ) ;
#231 = APPROVAL_STATUS ( 'not_yet_approved' ) ;
#232 = PERSON_AND_ORGANIZATION ( #241, #240 ) ;
#233 = PRODUCT_DEFINITION ( 'UNKNOWN', '', #149, #234 ) ;
#234 = DESIGN_CONTEXT ( 'detailed design', #236, 'design' ) ;
#235 = APPLICATION_PROTOCOL_DEFINITION ( 'international standard', 'config_control_design', 1994, #236 ) ;
#236 = APPLICATION_CONTEXT ( 'configuration controlled 3d designs of mechanical parts and assemblies' ) ;
#237 = CC_DESIGN_PERSON_AND_ORGANIZATION_ASSIGNMENT ( #239, #238, ( #242 ) ) ;
#238 = PERSON_AND_ORGANIZATION_ROLE ( 'design_owner' ) ;
#239 = PERSON_AND_ORGANIZATION ( #241, #240 ) ;
#240 = ORGANIZATION ( 'UNSPECIFIED', 'UNSPECIFIED', '' ) ;
#241 = PERSON ( 'UNSPECIFIED', 'UNSPECIFIED', 'UNSPECIFIED', ('UNSPECIFIED'), ('UNSPECIFIED'), ('UNSPECIFIED') ) ;
#242 = PRODUCT ( '24948-E0W', '24948-E0W', '', ( #243 ) ) ;
#243 = MECHANICAL_CONTEXT ( 'NONE', #223, 'mechanical' ) ;
#244 = APPLICATION_PROTOCOL_DEFINITION ( 'international standard', 'config_control_design', 1994, #223 ) ;
#245 =( LENGTH_UNIT ( ) NAMED_UNIT ( * ) SI_UNIT ( .MILLI., .METRE. ) );
#246 = CARTESIAN_POINT ( 'NONE',  ( 0.0000000000000000000, 0.0000000000000000000, -2.170055327027987000 ) ) ;
#247 = AXIS2_PLACEMENT_3D ( 'NONE', #246, #268, #267 ) ;
#248 = CARTESIAN_POINT ( 'NONE',  ( -6.349999999999999600, 7.776507174585692200E-016, -0.3795106372779921100 ) ) ;
#249 = DIRECTION ( 'NONE',  ( 1.000000000000000000, 0.0000000000000000000, 0.0000000000000000000 ) ) ;
#250 = DIRECTION ( 'NONE',  ( -0.0000000000000000000, -0.0000000000000000000, 1.000000000000000000 ) ) ;
#251 = ADVANCED_BREP_SHAPE_REPRESENTATION ( '24948-E0W', ( #40, #222 ), #252 ) ;
#252 =( GEOMETRIC_REPRESENTATION_CONTEXT ( 3 ) GLOBAL_UNCERTAINTY_ASSIGNED_CONTEXT ( ( #253 ) ) GLOBAL_UNIT_ASSIGNED_CONTEXT ( ( #245, #255, #254 ) ) REPRESENTATION_CONTEXT ( 'NONE', 'WORKASPACE' ) );
#253 = UNCERTAINTY_MEASURE_WITH_UNIT (LENGTH_MEASURE( 1.000000000000000100E-005 ), #245, 'distance_accuracy_value', 'NONE');
#254 =( NAMED_UNIT ( * ) SI_UNIT ( $, .STERADIAN. ) SOLID_ANGLE_UNIT ( ) );
#255 =( NAMED_UNIT ( * ) PLANE_ANGLE_UNIT ( ) SI_UNIT ( $, .RADIAN. ) );
#256 = CIRCLE ( 'NONE', #262, 6.349999999999999600 ) ;
#257 = CARTESIAN_POINT ( 'NONE',  ( 0.0000000000000000000, 0.0000000000000000000, -0.3795106372779921100 ) ) ;
#258 = CONICAL_SURFACE ( 'NONE', #247, 6.208578643762690400, 0.7853981633974636000 ) ;
#259 = DIRECTION ( 'NONE',  ( -0.0000000000000000000, -0.0000000000000000000, 1.000000000000000000 ) ) ;
#260 = VECTOR ( 'NONE', #259, 1000.000000000000000 ) ;
#261 = CARTESIAN_POINT ( 'NONE',  ( 6.349999999999999600, 0.0000000000000000000, 25.59425907430118500 ) ) ;
#262 = AXIS2_PLACEMENT_3D ( 'NONE', #257, #250, #249 ) ;
#263 = CYLINDRICAL_SURFACE ( 'NONE', #217, 6.349999999999999600 ) ;
#264 = CARTESIAN_POINT ( 'NONE',  ( 0.0000000000000000000, 0.0000000000000000000, 0.0000000000000000000 ) ) ;
#265 = DIRECTION ( 'NONE',  ( 1.000000000000000000, 0.0000000000000000000, 0.0000000000000000000 ) ) ;
#266 = DIRECTION ( 'NONE',  ( -0.0000000000000000000, -0.0000000000000000000, 1.000000000000000000 ) ) ;
#267 = DIRECTION ( 'NONE',  ( 1.000000000000000000, 0.0000000000000000000, 0.0000000000000000000 ) ) ;
#268 = DIRECTION ( 'NONE',  ( -0.0000000000000000000, -0.0000000000000000000, 1.000000000000000000 ) ) ;
#269 = LINE ( 'NONE', #261, #260 ) ;
#270 = FACE_OUTER_BOUND ( 'NONE', #42, .T. ) ;
#271 = CARTESIAN_POINT ( 'NONE',  ( 6.349999999999999600, 7.776507174585692200E-016, -0.3795106372779921100 ) ) ;
#272 = LINE ( 'NONE', #271, #216 ) ;
#273 = PERSON_AND_ORGANIZATION_ROLE ( 'design_supplier' ) ;
#274 = PERSON_AND_ORGANIZATION ( #241, #240 ) ;
#275 = CC_DESIGN_PERSON_AND_ORGANIZATION_ASSIGNMENT ( #274, #273, ( #149 ) ) ;
#276 = SHAPE_DEFINITION_REPRESENTATION ( #277, #251 ) ;
#277 = PRODUCT_DEFINITION_SHAPE ( 'NONE', 'NONE',  #233 ) ;
#278 = PRODUCT_RELATED_PRODUCT_CATEGORY ( 'detail', '', ( #242 ) ) ;
#279 = CC_DESIGN_SECURITY_CLASSIFICATION ( #300, ( #149 ) ) ;
#280 = CC_DESIGN_APPROVAL ( #288, ( #300 ) ) ;
#281 = APPROVAL_DATE_TIME ( #282, #288 ) ;
#282 = DATE_AND_TIME ( #283, #284 ) ;
#283 = CALENDAR_DATE ( 2012, 1, 10 ) ;
#284 = LOCAL_TIME ( 10, 4, 51.00000000000000000, #285 ) ;
#285 = COORDINATED_UNIVERSAL_TIME_OFFSET ( 5, 0, .BEHIND. ) ;
#286 = APPROVAL_PERSON_ORGANIZATION ( #290, #288, #287 ) ;
#287 = APPROVAL_ROLE ( '' ) ;
#288 = APPROVAL ( #289, 'UNSPECIFIED' ) ;
#289 = APPROVAL_STATUS ( 'not_yet_approved' ) ;
#290 = PERSON_AND_ORGANIZATION ( #241, #240 ) ;
#291 = CC_DESIGN_DATE_AND_TIME_ASSIGNMENT ( #293, #292, ( #300 ) ) ;
#292 = DATE_TIME_ROLE ( 'classification_date' ) ;
#293 = DATE_AND_TIME ( #294, #295 ) ;
#294 = CALENDAR_DATE ( 2012, 1, 10 ) ;
#295 = LOCAL_TIME ( 10, 4, 51.00000000000000000, #296 ) ;
#296 = COORDINATED_UNIVERSAL_TIME_OFFSET ( 5, 0, .BEHIND. ) ;
#297 = CC_DESIGN_PERSON_AND_ORGANIZATION_ASSIGNMENT ( #299, #298, ( #300 ) ) ;
#298 = PERSON_AND_ORGANIZATION_ROLE ( 'classification_officer' ) ;
#299 = PERSON_AND_ORGANIZATION ( #241, #240 ) ;
#300 = SECURITY_CLASSIFICATION ( '', '', #301 ) ;
#301 = SECURITY_CLASSIFICATION_LEVEL ( 'unclassified' ) ;
ENDSEC;
END-ISO-10303-21;
