ISO-10303-21;
HEADER;
FILE_DESCRIPTION (( 'STEP AP203' ),
    '1' );
FILE_NAME ('34599_36940.step',
    '2017-08-24T13:19:40',
    ( '' ),
    ( '' ),
    'SwSTEP 2.0',
    'SolidWorks 2016',
    '' );
FILE_SCHEMA (( 'CONFIG_CONTROL_DESIGN' ));
ENDSEC;

DATA;
#1 =( GEOMETRIC_REPRESENTATION_CONTEXT ( 3 ) GLOBAL_UNCERTAINTY_ASSIGNED_CONTEXT ( ( #125 ) ) GLOBAL_UNIT_ASSIGNED_CONTEXT ( ( #122, #41, #71 ) ) REPRESENTATION_CONTEXT ( 'NONE', 'WORKASPACE' ) );
#2 = CALENDAR_DATE ( 2017, 24, 8 ) ;
#3 = APPROVAL_DATE_TIME ( #149, #12 ) ;
#4 = ADVANCED_FACE ( 'NONE', ( #59 ), #169, .T. ) ;
#5 = SECURITY_CLASSIFICATION ( '', '', #26 ) ;
#6 = EDGE_LOOP ( 'NONE', ( #133, #72, #129, #37 ) ) ;
#7 = APPROVAL ( #144, 'UNSPECIFIED' ) ;
#8 = CARTESIAN_POINT ( 'NONE',  ( 0.0000000000000000000, 0.0000000000000000000, 0.0000000000000000000 ) ) ;
#9 = CARTESIAN_POINT ( 'NONE',  ( -25.00000000000000000, 0.0000000000000000000, 0.0000000000000000000 ) ) ;
#10 = DIRECTION ( 'NONE',  ( 0.0000000000000000000, 0.0000000000000000000, 1.000000000000000000 ) ) ;
#11 = COORDINATED_UNIVERSAL_TIME_OFFSET ( 5, 0, .BEHIND. ) ;
#12 = APPROVAL ( #94, 'UNSPECIFIED' ) ;
#13 = APPROVAL_ROLE ( '' ) ;
#14 = CALENDAR_DATE ( 2017, 24, 8 ) ;
#15 = MECHANICAL_CONTEXT ( 'NONE', #170, 'mechanical' ) ;
#16 = PRODUCT_DEFINITION_FORMATION_WITH_SPECIFIED_SOURCE ( 'ANY', '', #90, .NOT_KNOWN. ) ;
#17 = FACE_OUTER_BOUND ( 'NONE', #6, .T. ) ;
#18 = ORIENTED_EDGE ( 'NONE', *, *, #20, .T. ) ;
#19 = CC_DESIGN_SECURITY_CLASSIFICATION ( #5, ( #16 ) ) ;
#20 = EDGE_CURVE ( 'NONE', #147, #60, #78, .T. ) ;
#21 = DIRECTION ( 'NONE',  ( -1.000000000000000000, 0.0000000000000000000, 0.0000000000000000000 ) ) ;
#22 = DIRECTION ( 'NONE',  ( -0.0000000000000000000, -0.0000000000000000000, -1.000000000000000000 ) ) ;
#23 = DIRECTION ( 'NONE',  ( 0.0000000000000000000, 0.0000000000000000000, 1.000000000000000000 ) ) ;
#24 = ORIENTED_EDGE ( 'NONE', *, *, #166, .F. ) ;
#25 = PERSON_AND_ORGANIZATION_ROLE ( 'creator' ) ;
#26 = SECURITY_CLASSIFICATION_LEVEL ( 'unclassified' ) ;
#27 = DATE_AND_TIME ( #58, #62 ) ;
#28 = ORIENTED_EDGE ( 'NONE', *, *, #135, .F. ) ;
#29 = DIRECTION ( 'NONE',  ( 0.0000000000000000000, 0.0000000000000000000, 1.000000000000000000 ) ) ;
#30 = CC_DESIGN_APPROVAL ( #107, ( #16 ) ) ;
#31 = PRODUCT_RELATED_PRODUCT_CATEGORY ( 'detail', '', ( #90 ) ) ;
#32 = PERSON_AND_ORGANIZATION ( #69, #74 ) ;
#33 = DESIGN_CONTEXT ( 'detailed design', #56, 'design' ) ;
#34 = EDGE_LOOP ( 'NONE', ( #155, #98 ) ) ;
#35 = CARTESIAN_POINT ( 'NONE',  ( 0.0000000000000000000, 0.0000000000000000000, 1.000000000000000000 ) ) ;
#36 = PERSON_AND_ORGANIZATION ( #69, #74 ) ;
#37 = ORIENTED_EDGE ( 'NONE', *, *, #135, .T. ) ;
#38 = DATE_TIME_ROLE ( 'classification_date' ) ;
#39 = APPROVAL_ROLE ( '' ) ;
#40 = AXIS2_PLACEMENT_3D ( 'NONE', #132, #23, #141 ) ;
#41 =( NAMED_UNIT ( * ) PLANE_ANGLE_UNIT ( ) SI_UNIT ( $, .RADIAN. ) );
#42 = PERSON_AND_ORGANIZATION ( #69, #74 ) ;
#43 = APPROVAL_PERSON_ORGANIZATION ( #77, #107, #39 ) ;
#44 = MANIFOLD_SOLID_BREP ( 'Boss-Extrude1', #115 ) ;
#45 = LOCAL_TIME ( 9, 19, 40.00000000000000000, #136 ) ;
#46 = CC_DESIGN_PERSON_AND_ORGANIZATION_ASSIGNMENT ( #91, #53, ( #5 ) ) ;
#47 = AXIS2_PLACEMENT_3D ( 'NONE', #35, #81, #103 ) ;
#48 = CARTESIAN_POINT ( 'NONE',  ( 0.0000000000000000000, 0.0000000000000000000, 1.000000000000000000 ) ) ;
#49 = LINE ( 'NONE', #51, #65 ) ;
#50 = DIRECTION ( 'NONE',  ( -0.0000000000000000000, -0.0000000000000000000, -1.000000000000000000 ) ) ;
#51 = CARTESIAN_POINT ( 'NONE',  ( 25.00000000000000000, 3.061616997868383000E-015, 1.000000000000000000 ) ) ;
#52 = CARTESIAN_POINT ( 'NONE',  ( -25.00000000000000000, 0.0000000000000000000, 1.000000000000000000 ) ) ;
#53 = PERSON_AND_ORGANIZATION_ROLE ( 'classification_officer' ) ;
#54 = PLANE ( 'NONE',  #151 ) ;
#55 = CYLINDRICAL_SURFACE ( 'NONE', #142, 25.00000000000000000 ) ;
#56 = APPLICATION_CONTEXT ( 'configuration controlled 3d designs of mechanical parts and assemblies' ) ;
#57 = VECTOR ( 'NONE', #156, 1000.000000000000000 ) ;
#58 = CALENDAR_DATE ( 2017, 24, 8 ) ;
#59 = FACE_OUTER_BOUND ( 'NONE', #34, .T. ) ;
#60 = VERTEX_POINT ( 'NONE', #9 ) ;
#61 = ADVANCED_FACE ( 'NONE', ( #127 ), #173, .T. ) ;
#62 = LOCAL_TIME ( 9, 19, 40.00000000000000000, #100 ) ;
#63 = VERTEX_POINT ( 'NONE', #138 ) ;
#64 = CARTESIAN_POINT ( 'NONE',  ( 25.00000000000000000, 3.061616997868383000E-015, 0.0000000000000000000 ) ) ;
#65 = VECTOR ( 'NONE', #22, 1000.000000000000000 ) ;
#66 = PERSON_AND_ORGANIZATION_ROLE ( 'creator' ) ;
#67 = CC_DESIGN_APPROVAL ( #12, ( #73 ) ) ;
#68 = APPROVAL_ROLE ( '' ) ;
#69 = PERSON ( 'UNSPECIFIED', 'UNSPECIFIED', 'UNSPECIFIED', ('UNSPECIFIED'), ('UNSPECIFIED'), ('UNSPECIFIED') ) ;
#70 = PERSON_AND_ORGANIZATION ( #69, #74 ) ;
#71 =( NAMED_UNIT ( * ) SI_UNIT ( $, .STERADIAN. ) SOLID_ANGLE_UNIT ( ) );
#72 = ORIENTED_EDGE ( 'NONE', *, *, #159, .F. ) ;
#73 = PRODUCT_DEFINITION ( 'UNKNOWN', '', #16, #33 ) ;
#74 = ORGANIZATION ( 'UNSPECIFIED', 'UNSPECIFIED', '' ) ;
#75 = APPROVAL_PERSON_ORGANIZATION ( #36, #7, #68 ) ;
#76 = CALENDAR_DATE ( 2017, 24, 8 ) ;
#77 = PERSON_AND_ORGANIZATION ( #69, #74 ) ;
#78 = CIRCLE ( 'NONE', #40, 25.00000000000000000 ) ;
#79 = CARTESIAN_POINT ( 'NONE',  ( -25.00000000000000000, 0.0000000000000000000, 1.000000000000000000 ) ) ;
#80 = CC_DESIGN_PERSON_AND_ORGANIZATION_ASSIGNMENT ( #112, #25, ( #73 ) ) ;
#81 = DIRECTION ( 'NONE',  ( 0.0000000000000000000, 0.0000000000000000000, 1.000000000000000000 ) ) ;
#82 = DATE_TIME_ROLE ( 'creation_date' ) ;
#83 = APPLICATION_PROTOCOL_DEFINITION ( 'international standard', 'config_control_design', 1994, #56 ) ;
#84 = SHAPE_DEFINITION_REPRESENTATION ( #117, #89 ) ;
#85 = EDGE_CURVE ( 'NONE', #63, #124, #162, .T. ) ;
#86 = CALENDAR_DATE ( 2017, 24, 8 ) ;
#87 = COORDINATED_UNIVERSAL_TIME_OFFSET ( 5, 0, .BEHIND. ) ;
#88 = LOCAL_TIME ( 9, 19, 40.00000000000000000, #126 ) ;
#89 = ADVANCED_BREP_SHAPE_REPRESENTATION ( '34599_36940', ( #44, #172 ), #1 ) ;
#90 = PRODUCT ( '34599_36940', '34599_36940', '', ( #15 ) ) ;
#91 = PERSON_AND_ORGANIZATION ( #69, #74 ) ;
#92 = DIRECTION ( 'NONE',  ( 0.0000000000000000000, 0.0000000000000000000, 1.000000000000000000 ) ) ;
#93 = DIRECTION ( 'NONE',  ( 1.000000000000000000, 0.0000000000000000000, 0.0000000000000000000 ) ) ;
#94 = APPROVAL_STATUS ( 'not_yet_approved' ) ;
#95 = DATE_AND_TIME ( #86, #110 ) ;
#96 = EDGE_LOOP ( 'NONE', ( #158, #131, #18, #24 ) ) ;
#97 = DIRECTION ( 'NONE',  ( 0.0000000000000000000, 0.0000000000000000000, 1.000000000000000000 ) ) ;
#98 = ORIENTED_EDGE ( 'NONE', *, *, #85, .T. ) ;
#99 = CC_DESIGN_DATE_AND_TIME_ASSIGNMENT ( #27, #82, ( #73 ) ) ;
#100 = COORDINATED_UNIVERSAL_TIME_OFFSET ( 5, 0, .BEHIND. ) ;
#101 = EDGE_LOOP ( 'NONE', ( #28, #105 ) ) ;
#102 = EDGE_CURVE ( 'NONE', #63, #147, #49, .T. ) ;
#103 = DIRECTION ( 'NONE',  ( 1.000000000000000000, 0.0000000000000000000, 0.0000000000000000000 ) ) ;
#104 = LOCAL_TIME ( 9, 19, 40.00000000000000000, #11 ) ;
#105 = ORIENTED_EDGE ( 'NONE', *, *, #20, .F. ) ;
#106 = DIRECTION ( 'NONE',  ( 1.000000000000000000, 0.0000000000000000000, 0.0000000000000000000 ) ) ;
#107 = APPROVAL ( #121, 'UNSPECIFIED' ) ;
#108 = DIRECTION ( 'NONE',  ( 1.000000000000000000, 0.0000000000000000000, -0.0000000000000000000 ) ) ;
#109 = CARTESIAN_POINT ( 'NONE',  ( 0.0000000000000000000, 0.0000000000000000000, 0.0000000000000000000 ) ) ;
#110 = LOCAL_TIME ( 9, 19, 40.00000000000000000, #87 ) ;
#111 = CIRCLE ( 'NONE', #171, 25.00000000000000000 ) ;
#112 = PERSON_AND_ORGANIZATION ( #69, #74 ) ;
#113 = AXIS2_PLACEMENT_3D ( 'NONE', #48, #140, #21 ) ;
#114 = APPROVAL_DATE_TIME ( #160, #107 ) ;
#115 = CLOSED_SHELL ( 'NONE', ( #61, #163, #4, #175 ) ) ;
#116 = APPROVAL_DATE_TIME ( #153, #7 ) ;
#117 = PRODUCT_DEFINITION_SHAPE ( 'NONE', 'NONE',  #73 ) ;
#118 = DIRECTION ( 'NONE',  ( 0.0000000000000000000, 0.0000000000000000000, 1.000000000000000000 ) ) ;
#119 = DIRECTION ( 'NONE',  ( -1.000000000000000000, 0.0000000000000000000, 0.0000000000000000000 ) ) ;
#120 = AXIS2_PLACEMENT_3D ( 'NONE', #167, #10, #106 ) ;
#121 = APPROVAL_STATUS ( 'not_yet_approved' ) ;
#122 =( LENGTH_UNIT ( ) NAMED_UNIT ( * ) SI_UNIT ( .MILLI., .METRE. ) );
#123 = CARTESIAN_POINT ( 'NONE',  ( 0.0000000000000000000, 0.0000000000000000000, 0.0000000000000000000 ) ) ;
#124 = VERTEX_POINT ( 'NONE', #79 ) ;
#125 = UNCERTAINTY_MEASURE_WITH_UNIT (LENGTH_MEASURE( 1.000000000000000100E-005 ), #122, 'distance_accuracy_value', 'NONE');
#126 = COORDINATED_UNIVERSAL_TIME_OFFSET ( 5, 0, .BEHIND. ) ;
#127 = FACE_OUTER_BOUND ( 'NONE', #96, .T. ) ;
#128 = PERSON_AND_ORGANIZATION ( #69, #74 ) ;
#129 = ORIENTED_EDGE ( 'NONE', *, *, #166, .T. ) ;
#130 = DIRECTION ( 'NONE',  ( 1.000000000000000000, 0.0000000000000000000, 0.0000000000000000000 ) ) ;
#131 = ORIENTED_EDGE ( 'NONE', *, *, #102, .T. ) ;
#132 = CARTESIAN_POINT ( 'NONE',  ( 0.0000000000000000000, 0.0000000000000000000, 0.0000000000000000000 ) ) ;
#133 = ORIENTED_EDGE ( 'NONE', *, *, #102, .F. ) ;
#134 = PERSON_AND_ORGANIZATION_ROLE ( 'design_owner' ) ;
#135 = EDGE_CURVE ( 'NONE', #60, #147, #111, .T. ) ;
#136 = COORDINATED_UNIVERSAL_TIME_OFFSET ( 5, 0, .BEHIND. ) ;
#137 = AXIS2_PLACEMENT_3D ( 'NONE', #152, #92, #108 ) ;
#138 = CARTESIAN_POINT ( 'NONE',  ( 25.00000000000000000, 3.061616997868383000E-015, 1.000000000000000000 ) ) ;
#139 = CIRCLE ( 'NONE', #120, 25.00000000000000000 ) ;
#140 = DIRECTION ( 'NONE',  ( -0.0000000000000000000, -0.0000000000000000000, -1.000000000000000000 ) ) ;
#141 = DIRECTION ( 'NONE',  ( 1.000000000000000000, 0.0000000000000000000, 0.0000000000000000000 ) ) ;
#142 = AXIS2_PLACEMENT_3D ( 'NONE', #154, #50, #119 ) ;
#143 = DIRECTION ( 'NONE',  ( 1.000000000000000000, 0.0000000000000000000, -0.0000000000000000000 ) ) ;
#144 = APPROVAL_STATUS ( 'not_yet_approved' ) ;
#145 = APPLICATION_PROTOCOL_DEFINITION ( 'international standard', 'config_control_design', 1994, #170 ) ;
#146 = PERSON_AND_ORGANIZATION_ROLE ( 'design_supplier' ) ;
#147 = VERTEX_POINT ( 'NONE', #64 ) ;
#148 = CC_DESIGN_PERSON_AND_ORGANIZATION_ASSIGNMENT ( #42, #66, ( #16 ) ) ;
#149 = DATE_AND_TIME ( #14, #88 ) ;
#150 = CC_DESIGN_PERSON_AND_ORGANIZATION_ASSIGNMENT ( #70, #134, ( #90 ) ) ;
#151 = AXIS2_PLACEMENT_3D ( 'NONE', #109, #29, #143 ) ;
#152 = CARTESIAN_POINT ( 'NONE',  ( 0.0000000000000000000, 0.0000000000000000000, 1.000000000000000000 ) ) ;
#153 = DATE_AND_TIME ( #2, #104 ) ;
#154 = CARTESIAN_POINT ( 'NONE',  ( 0.0000000000000000000, 0.0000000000000000000, 1.000000000000000000 ) ) ;
#155 = ORIENTED_EDGE ( 'NONE', *, *, #159, .T. ) ;
#156 = DIRECTION ( 'NONE',  ( -0.0000000000000000000, -0.0000000000000000000, -1.000000000000000000 ) ) ;
#157 = LINE ( 'NONE', #52, #57 ) ;
#158 = ORIENTED_EDGE ( 'NONE', *, *, #85, .F. ) ;
#159 = EDGE_CURVE ( 'NONE', #124, #63, #139, .T. ) ;
#160 = DATE_AND_TIME ( #76, #45 ) ;
#161 = CC_DESIGN_PERSON_AND_ORGANIZATION_ASSIGNMENT ( #128, #146, ( #16 ) ) ;
#162 = CIRCLE ( 'NONE', #47, 25.00000000000000000 ) ;
#163 = ADVANCED_FACE ( 'NONE', ( #17 ), #55, .T. ) ;
#164 = CC_DESIGN_DATE_AND_TIME_ASSIGNMENT ( #95, #38, ( #5 ) ) ;
#165 = APPROVAL_PERSON_ORGANIZATION ( #32, #12, #13 ) ;
#166 = EDGE_CURVE ( 'NONE', #124, #60, #157, .T. ) ;
#167 = CARTESIAN_POINT ( 'NONE',  ( 0.0000000000000000000, 0.0000000000000000000, 1.000000000000000000 ) ) ;
#168 = FACE_OUTER_BOUND ( 'NONE', #101, .T. ) ;
#169 = PLANE ( 'NONE',  #137 ) ;
#170 = APPLICATION_CONTEXT ( 'configuration controlled 3d designs of mechanical parts and assemblies' ) ;
#171 = AXIS2_PLACEMENT_3D ( 'NONE', #8, #118, #130 ) ;
#172 = AXIS2_PLACEMENT_3D ( 'NONE', #123, #97, #93 ) ;
#173 = CYLINDRICAL_SURFACE ( 'NONE', #113, 25.00000000000000000 ) ;
#174 = CC_DESIGN_APPROVAL ( #7, ( #5 ) ) ;
#175 = ADVANCED_FACE ( 'NONE', ( #168 ), #54, .F. ) ;
ENDSEC;
END-ISO-10303-21;
