ISO-10303-21;
HEADER;
FILE_DESCRIPTION (( 'STEP AP203' ),
    '1' );
FILE_NAME ('TTN051884-E0W.STEP',
    '2017-04-18T15:07:32',
    ( 'admin' ),
    ( '' ),
    'SwSTEP 2.0',
    'SolidWorks 2016',
    '' );
FILE_SCHEMA (( 'CONFIG_CONTROL_DESIGN' ));
ENDSEC;

DATA;
#1 = ADVANCED_FACE ( 'NONE', ( #177 ), #49, .T. ) ;
#2 = CIRCLE ( 'NONE', #128, 0.4922679884161487700 ) ;
#3 = DATE_AND_TIME ( #60, #138 ) ;
#4 = CARTESIAN_POINT ( 'NONE',  ( 0.0000000000000000000, -0.4922679884161497200, -0.04069847585315641100 ) ) ;
#5 = CC_DESIGN_PERSON_AND_ORGANIZATION_ASSIGNMENT ( #15, #279, ( #172 ) ) ;
#6 = VERTEX_POINT ( 'NONE', #73 ) ;
#7 = DATE_AND_TIME ( #300, #74 ) ;
#8 = CARTESIAN_POINT ( 'NONE',  ( 0.0000000000000000000, 2.139046625737991100E-017, -0.03140875052542303100 ) ) ;
#9 = DIMENSIONAL_EXPONENTS ( 1.000000000000000000, 0.0000000000000000000, 0.0000000000000000000, 0.0000000000000000000, 0.0000000000000000000, 0.0000000000000000000, 0.0000000000000000000 ) ;
#10 = ORIENTED_EDGE ( 'NONE', *, *, #274, .F. ) ;
#11 = DIRECTION ( 'NONE',  ( 0.0000000000000000000, -1.000000000000000000, -1.878145495644180800E-016 ) ) ;
#12 = CARTESIAN_POINT ( 'NONE',  ( 0.0000000000000000000, 2.139046625737991100E-017, -0.03140875052542303100 ) ) ;
#13 = EDGE_LOOP ( 'NONE', ( #217, #254, #21 ) ) ;
#14 = PERSON_AND_ORGANIZATION ( #231, #81 ) ;
#15 = PERSON_AND_ORGANIZATION ( #231, #81 ) ;
#16 = DIRECTION ( 'NONE',  ( 0.0000000000000000000, 1.000000000000000000, 1.907645367807718400E-016 ) ) ;
#17 = DIRECTION ( 'NONE',  ( 0.0000000000000000000, 1.000000000000000000, 1.878145495644180800E-016 ) ) ;
#18 = AXIS2_PLACEMENT_3D ( 'NONE', #304, #119, #259 ) ;
#19 = CARTESIAN_POINT ( 'NONE',  ( 0.0000000000000000000, 0.0000000000000000000, -2.669685039370079100 ) ) ;
#20 =( NAMED_UNIT ( * ) SI_UNIT ( $, .STERADIAN. ) SOLID_ANGLE_UNIT ( ) );
#21 = ORIENTED_EDGE ( 'NONE', *, *, #116, .F. ) ;
#22 = DATE_TIME_ROLE ( 'creation_date' ) ;
#23 = CARTESIAN_POINT ( 'NONE',  ( 0.0000000000000000000, -4.978729311056655800E-016, 0.04069847585315663300 ) ) ;
#24 = EDGE_LOOP ( 'NONE', ( #43, #296, #293, #249 ) ) ;
#25 = AXIS2_PLACEMENT_3D ( 'NONE', #186, #103, #261 ) ;
#26 = FACE_OUTER_BOUND ( 'NONE', #159, .T. ) ;
#27 = ORIENTED_EDGE ( 'NONE', *, *, #157, .F. ) ;
#28 = SPHERICAL_SURFACE ( 'NONE', #290, 2.754724409448819200 ) ;
#29 = CALENDAR_DATE ( 2017, 18, 4 ) ;
#30 = PRODUCT_DEFINITION_FORMATION_WITH_SPECIFIED_SOURCE ( 'ANY', '', #172, .NOT_KNOWN. ) ;
#31 = CC_DESIGN_APPROVAL ( #171, ( #30 ) ) ;
#32 = PRODUCT_DEFINITION_SHAPE ( 'NONE', 'NONE',  #318 ) ;
#33 = EDGE_LOOP ( 'NONE', ( #194, #243, #91 ) ) ;
#34 = EDGE_CURVE ( 'NONE', #242, #98, #183, .T. ) ;
#35 = DIRECTION ( 'NONE',  ( -1.000000000000000000, 0.0000000000000000000, 0.0000000000000000000 ) ) ;
#36 = DIRECTION ( 'NONE',  ( 0.0000000000000000000, -1.000000000000000000, -1.878145495644180800E-016 ) ) ;
#37 = VERTEX_POINT ( 'NONE', #152 ) ;
#38 = DATE_AND_TIME ( #111, #180 ) ;
#39 = FACE_OUTER_BOUND ( 'NONE', #292, .T. ) ;
#40 = CARTESIAN_POINT ( 'NONE',  ( 0.0000000000000000000, -3.373397306978640000E-016, 0.08503937007873997600 ) ) ;
#41 = APPLICATION_PROTOCOL_DEFINITION ( 'international standard', 'config_control_design', 1994, #66 ) ;
#42 = APPROVAL_ROLE ( '' ) ;
#43 = ORIENTED_EDGE ( 'NONE', *, *, #100, .T. ) ;
#44 = ADVANCED_FACE ( 'NONE', ( #105 ), #195, .T. ) ;
#45 = CIRCLE ( 'NONE', #131, 0.5000000000000000000 ) ;
#46 = DIRECTION ( 'NONE',  ( -0.0000000000000000000, -1.836909530733547200E-016, 1.000000000000000000 ) ) ;
#47 = DIRECTION ( 'NONE',  ( 0.0000000000000000000, 1.000000000000000000, 1.907645367807719600E-016 ) ) ;
#48 = PERSON_AND_ORGANIZATION ( #231, #81 ) ;
#49 = SPHERICAL_SURFACE ( 'NONE', #25, 2.754724409448819200 ) ;
#50 = APPROVAL_DATE_TIME ( #7, #303 ) ;
#51 = CC_DESIGN_DATE_AND_TIME_ASSIGNMENT ( #3, #22, ( #318 ) ) ;
#52 = CC_DESIGN_PERSON_AND_ORGANIZATION_ASSIGNMENT ( #115, #233, ( #30 ) ) ;
#53 = CARTESIAN_POINT ( 'NONE',  ( 0.0000000000000000000, 8.145021120422325800E-018, 0.04069847585315663300 ) ) ;
#54 = CYLINDRICAL_SURFACE ( 'NONE', #161, 0.5000000000000000000 ) ;
#55 = LOCAL_TIME ( 11, 7, 32.00000000000000000, #130 ) ;
#56 = LINE ( 'NONE', #201, #221 ) ;
#57 = CONICAL_SURFACE ( 'NONE', #275, 0.4922679884161491000, 0.6941391439775915800 ) ;
#58 = CARTESIAN_POINT ( 'NONE',  ( 0.0000000000000000000, 0.0000000000000000000, -2.669685039370079100 ) ) ;
#59 = AXIS2_PLACEMENT_3D ( 'NONE', #53, #65, #204 ) ;
#60 = CALENDAR_DATE ( 2017, 18, 4 ) ;
#61 = CARTESIAN_POINT ( 'NONE',  ( 0.0000000000000000000, -0.5000000000000000000, -0.03140875052542312100 ) ) ;
#62 = DIRECTION ( 'NONE',  ( -0.0000000000000000000, -1.836909530733566100E-016, 1.000000000000000000 ) ) ;
#63 = DIRECTION ( 'NONE',  ( -1.000000000000000000, 1.224646799147353200E-016, 2.249565377136128000E-032 ) ) ;
#64 = AXIS2_PLACEMENT_3D ( 'NONE', #228, #63, #258 ) ;
#65 = DIRECTION ( 'NONE',  ( 0.0000000000000000000, 1.836909530733547200E-016, -1.000000000000000000 ) ) ;
#66 = APPLICATION_CONTEXT ( 'configuration controlled 3d designs of mechanical parts and assemblies' ) ;
#67 = ORIENTED_EDGE ( 'NONE', *, *, #199, .T. ) ;
#68 = PERSON_AND_ORGANIZATION_ROLE ( 'design_supplier' ) ;
#69 = ADVANCED_FACE ( 'NONE', ( #246 ), #28, .T. ) ;
#70 = EDGE_CURVE ( 'NONE', #98, #244, #214, .T. ) ;
#71 = PRODUCT_RELATED_PRODUCT_CATEGORY ( 'detail', '', ( #172 ) ) ;
#72 = FACE_OUTER_BOUND ( 'NONE', #112, .T. ) ;
#73 = CARTESIAN_POINT ( 'NONE',  ( 6.123233995736766000E-017, 0.5000000000000000000, -0.03140875052542293300 ) ) ;
#74 = LOCAL_TIME ( 11, 7, 32.00000000000000000, #147 ) ;
#75 = VECTOR ( 'NONE', #264, 39.37007874015748900 ) ;
#76 = CONICAL_SURFACE ( 'NONE', #151, 0.5000000000000000000, 0.6941391439775523900 ) ;
#77 = VERTEX_POINT ( 'NONE', #40 ) ;
#78 = EDGE_CURVE ( 'NONE', #163, #244, #125, .T. ) ;
#79 = ORIENTED_EDGE ( 'NONE', *, *, #257, .F. ) ;
#80 = MANIFOLD_SOLID_BREP ( 'TTN051885-1-solid1', #141 ) ;
#81 = ORGANIZATION ( 'UNSPECIFIED', 'UNSPECIFIED', '' ) ;
#82 =( GEOMETRIC_REPRESENTATION_CONTEXT ( 3 ) GLOBAL_UNCERTAINTY_ASSIGNED_CONTEXT ( ( #245 ) ) GLOBAL_UNIT_ASSIGNED_CONTEXT ( ( #328, #170, #20 ) ) REPRESENTATION_CONTEXT ( 'NONE', 'WORKASPACE' ) );
#83 = AXIS2_PLACEMENT_3D ( 'NONE', #102, #179, #239 ) ;
#84 = CC_DESIGN_PERSON_AND_ORGANIZATION_ASSIGNMENT ( #48, #68, ( #30 ) ) ;
#85 = ORIENTED_EDGE ( 'NONE', *, *, #70, .T. ) ;
#86 = DIRECTION ( 'NONE',  ( 0.0000000000000000000, 0.0000000000000000000, -1.000000000000000000 ) ) ;
#87 = AXIS2_PLACEMENT_3D ( 'NONE', #129, #313, #153 ) ;
#88 = DIRECTION ( 'NONE',  ( 0.0000000000000000000, 1.000000000000000000, 1.878145495644180800E-016 ) ) ;
#89 = ORIENTED_EDGE ( 'NONE', *, *, #140, .T. ) ;
#90 = DIRECTION ( 'NONE',  ( 0.0000000000000000000, -1.000000000000000000, -1.878145495644180800E-016 ) ) ;
#91 = ORIENTED_EDGE ( 'NONE', *, *, #181, .T. ) ;
#92 = CARTESIAN_POINT ( 'NONE',  ( 0.0000000000000000000, 0.0000000000000000000, 0.08503937007874015600 ) ) ;
#93 = DIRECTION ( 'NONE',  ( 0.0000000000000000000, -1.000000000000000000, -1.983391140176426500E-016 ) ) ;
#94 = AXIS2_PLACEMENT_3D ( 'NONE', #117, #302, #148 ) ;
#95 = MECHANICAL_CONTEXT ( 'NONE', #66, 'mechanical' ) ;
#96 = ADVANCED_FACE ( 'NONE', ( #72 ), #191, .T. ) ;
#97 = PERSON_AND_ORGANIZATION_ROLE ( 'classification_officer' ) ;
#98 = VERTEX_POINT ( 'NONE', #268 ) ;
#99 = CARTESIAN_POINT ( 'NONE',  ( 6.123233995736766000E-017, 0.5000000000000000000, 0.03140875052542312800 ) ) ;
#100 = EDGE_CURVE ( 'NONE', #110, #6, #323, .T. ) ;
#101 = LENGTH_MEASURE_WITH_UNIT ( LENGTH_MEASURE( 0.02539999999999999900 ), #283 );
#102 = CARTESIAN_POINT ( 'NONE',  ( 0.0000000000000000000, 0.0000000000000000000, 2.669685039370079100 ) ) ;
#103 = DIRECTION ( 'NONE',  ( -1.000000000000000000, 0.0000000000000000000, 0.0000000000000000000 ) ) ;
#104 = DIRECTION ( 'NONE',  ( 1.000000000000000000, 0.0000000000000000000, 0.0000000000000000000 ) ) ;
#105 = FACE_OUTER_BOUND ( 'NONE', #235, .T. ) ;
#106 = AXIS2_PLACEMENT_3D ( 'NONE', #203, #104, #93 ) ;
#107 = LOCAL_TIME ( 11, 7, 32.00000000000000000, #168 ) ;
#108 = CYLINDRICAL_SURFACE ( 'NONE', #205, 0.5000000000000000000 ) ;
#109 = SECURITY_CLASSIFICATION ( '', '', #262 ) ;
#110 = VERTEX_POINT ( 'NONE', #315 ) ;
#111 = CALENDAR_DATE ( 2017, 18, 4 ) ;
#112 = EDGE_LOOP ( 'NONE', ( #155, #10, #184, #190 ) ) ;
#113 = SPHERICAL_SURFACE ( 'NONE', #83, 2.754724409448819200 ) ;
#114 = CARTESIAN_POINT ( 'NONE',  ( 0.0000000000000000000, 2.139046625737991700E-017, -0.03140875052542303100 ) ) ;
#115 = PERSON_AND_ORGANIZATION ( #231, #81 ) ;
#116 = EDGE_CURVE ( 'NONE', #163, #77, #211, .T. ) ;
#117 = CARTESIAN_POINT ( 'NONE',  ( 0.0000000000000000000, 0.0000000000000000000, 2.669685039370079100 ) ) ;
#118 = DIRECTION ( 'NONE',  ( 0.0000000000000000000, 1.000000000000000000, 1.983391140176426500E-016 ) ) ;
#119 = DIRECTION ( 'NONE',  ( 0.0000000000000000000, 0.0000000000000000000, 1.000000000000000000 ) ) ;
#120 = CARTESIAN_POINT ( 'NONE',  ( 0.0000000000000000000, 9.851459619663416300E-018, 0.03140875052542303800 ) ) ;
#121 = APPLICATION_CONTEXT ( 'configuration controlled 3d designs of mechanical parts and assemblies' ) ;
#122 = ADVANCED_FACE ( 'NONE', ( #267 ), #108, .T. ) ;
#123 = ORIENTED_EDGE ( 'NONE', *, *, #178, .T. ) ;
#124 = APPROVAL_STATUS ( 'not_yet_approved' ) ;
#125 = LINE ( 'NONE', #229, #175 ) ;
#126 = CC_DESIGN_PERSON_AND_ORGANIZATION_ASSIGNMENT ( #317, #97, ( #109 ) ) ;
#127 = LINE ( 'NONE', #325, #269 ) ;
#128 = AXIS2_PLACEMENT_3D ( 'NONE', #209, #46, #237 ) ;
#129 = CARTESIAN_POINT ( 'NONE',  ( 0.0000000000000000000, 0.0000000000000000000, 2.669685039370079100 ) ) ;
#130 = COORDINATED_UNIVERSAL_TIME_OFFSET ( 5, 0, .BEHIND. ) ;
#131 = AXIS2_PLACEMENT_3D ( 'NONE', #156, #169, #17 ) ;
#132 = ADVANCED_BREP_SHAPE_REPRESENTATION ( 'TTN051884-E0W', ( #80, #18 ), #82 ) ;
#133 = ORIENTED_EDGE ( 'NONE', *, *, #181, .F. ) ;
#134 = CIRCLE ( 'NONE', #94, 2.754724409448819200 ) ;
#135 = LINE ( 'NONE', #61, #142 ) ;
#136 = CARTESIAN_POINT ( 'NONE',  ( 0.0000000000000000000, 0.4922679884161477200, 0.04069847585315668200 ) ) ;
#137 = LINE ( 'NONE', #320, #234 ) ;
#138 = LOCAL_TIME ( 11, 7, 32.00000000000000000, #210 ) ;
#139 = ORIENTED_EDGE ( 'NONE', *, *, #294, .F. ) ;
#140 = EDGE_CURVE ( 'NONE', #6, #110, #182, .T. ) ;
#141 = CLOSED_SHELL ( 'NONE', ( #208, #174, #282, #232, #69, #1, #122, #308, #44, #96 ) ) ;
#142 = VECTOR ( 'NONE', #255, 39.37007874015748900 ) ;
#143 = DIRECTION ( 'NONE',  ( 7.834359718041827300E-017, 0.6397240186718662300, 0.7686046967943390700 ) ) ;
#144 = EDGE_CURVE ( 'NONE', #149, #6, #137, .T. ) ;
#145 = DIRECTION ( 'NONE',  ( 0.0000000000000000000, 1.836909530733547200E-016, -1.000000000000000000 ) ) ;
#146 = DIRECTION ( 'NONE',  ( 0.0000000000000000000, 1.836909530733547200E-016, -1.000000000000000000 ) ) ;
#147 = COORDINATED_UNIVERSAL_TIME_OFFSET ( 5, 0, .BEHIND. ) ;
#148 = DIRECTION ( 'NONE',  ( 0.0000000000000000000, 0.0000000000000000000, 1.000000000000000000 ) ) ;
#149 = VERTEX_POINT ( 'NONE', #223 ) ;
#150 = APPROVAL_STATUS ( 'not_yet_approved' ) ;
#151 = AXIS2_PLACEMENT_3D ( 'NONE', #114, #166, #90 ) ;
#152 = CARTESIAN_POINT ( 'NONE',  ( 0.0000000000000000000, 3.373397306978640000E-016, -0.08503937007873997600 ) ) ;
#153 = DIRECTION ( 'NONE',  ( 1.224646799147353200E-016, 1.000000000000000000, 0.0000000000000000000 ) ) ;
#154 = SHAPE_DEFINITION_REPRESENTATION ( #32, #132 ) ;
#155 = ORIENTED_EDGE ( 'NONE', *, *, #34, .F. ) ;
#156 = CARTESIAN_POINT ( 'NONE',  ( 0.0000000000000000000, 9.851459619663416300E-018, 0.03140875052542303800 ) ) ;
#157 = EDGE_CURVE ( 'NONE', #284, #149, #276, .T. ) ;
#158 = CARTESIAN_POINT ( 'NONE',  ( 0.0000000000000000000, 2.139046625737991700E-017, -0.03140875052542303100 ) ) ;
#159 = EDGE_LOOP ( 'NONE', ( #280, #298, #139, #312 ) ) ;
#160 = DIRECTION ( 'NONE',  ( -0.0000000000000000000, -1.836909530733565900E-016, 1.000000000000000000 ) ) ;
#161 = AXIS2_PLACEMENT_3D ( 'NONE', #92, #227, #278 ) ;
#162 = AXIS2_PLACEMENT_3D ( 'NONE', #297, #145, #321 ) ;
#163 = VERTEX_POINT ( 'NONE', #136 ) ;
#164 = DIRECTION ( 'NONE',  ( -0.0000000000000000000, -1.836909530733547200E-016, 1.000000000000000000 ) ) ;
#165 = AXIS2_PLACEMENT_3D ( 'NONE', #12, #198, #36 ) ;
#166 = DIRECTION ( 'NONE',  ( -0.0000000000000000000, -1.836909530733547200E-016, 1.000000000000000000 ) ) ;
#167 = DIRECTION ( 'NONE',  ( 0.0000000000000000000, 1.836909530733547200E-016, -1.000000000000000000 ) ) ;
#168 = COORDINATED_UNIVERSAL_TIME_OFFSET ( 5, 0, .BEHIND. ) ;
#169 = DIRECTION ( 'NONE',  ( 0.0000000000000000000, 1.836909530733547200E-016, -1.000000000000000000 ) ) ;
#170 =( NAMED_UNIT ( * ) PLANE_ANGLE_UNIT ( ) SI_UNIT ( $, .RADIAN. ) );
#171 = APPROVAL ( #206, 'UNSPECIFIED' ) ;
#172 = PRODUCT ( 'TTN051884-E0W', 'TTN051884-E0W', '', ( #95 ) ) ;
#173 = PERSON_AND_ORGANIZATION_ROLE ( 'creator' ) ;
#174 = ADVANCED_FACE ( 'NONE', ( #39 ), #76, .T. ) ;
#175 = VECTOR ( 'NONE', #216, 39.37007874015748100 ) ;
#176 = CARTESIAN_POINT ( 'NONE',  ( -6.028544163365422700E-017, -0.4922679884161486600, 0.04069847585315657800 ) ) ;
#177 = FACE_OUTER_BOUND ( 'NONE', #207, .T. ) ;
#178 = EDGE_CURVE ( 'NONE', #284, #110, #135, .T. ) ;
#179 = DIRECTION ( 'NONE',  ( 1.000000000000000000, 0.0000000000000000000, 0.0000000000000000000 ) ) ;
#180 = LOCAL_TIME ( 11, 7, 32.00000000000000000, #256 ) ;
#181 = EDGE_CURVE ( 'NONE', #149, #284, #287, .T. ) ;
#182 = CIRCLE ( 'NONE', #165, 0.5000000000000000000 ) ;
#183 = LINE ( 'NONE', #266, #75 ) ;
#184 = ORIENTED_EDGE ( 'NONE', *, *, #78, .T. ) ;
#185 = DESIGN_CONTEXT ( 'detailed design', #121, 'design' ) ;
#186 = CARTESIAN_POINT ( 'NONE',  ( 0.0000000000000000000, 0.0000000000000000000, -2.669685039370079100 ) ) ;
#187 = FACE_OUTER_BOUND ( 'NONE', #250, .T. ) ;
#188 = AXIS2_PLACEMENT_3D ( 'NONE', #299, #146, #324 ) ;
#189 = APPROVAL_DATE_TIME ( #265, #171 ) ;
#190 = ORIENTED_EDGE ( 'NONE', *, *, #70, .F. ) ;
#191 = CONICAL_SURFACE ( 'NONE', #59, 0.4922679884161491000, 0.6941391439775915800 ) ;
#192 = AXIS2_PLACEMENT_3D ( 'NONE', #8, #164, #11 ) ;
#193 = CC_DESIGN_DATE_AND_TIME_ASSIGNMENT ( #38, #281, ( #109 ) ) ;
#194 = ORIENTED_EDGE ( 'NONE', *, *, #218, .F. ) ;
#195 = CONICAL_SURFACE ( 'NONE', #260, 0.5000000000000000000, 0.6941391439775523900 ) ;
#196 = DIRECTION ( 'NONE',  ( 0.0000000000000000000, -1.000000000000000000, -1.707404996040164500E-016 ) ) ;
#197 = CIRCLE ( 'NONE', #224, 0.4922679884161487700 ) ;
#198 = DIRECTION ( 'NONE',  ( -0.0000000000000000000, -1.836909530733547200E-016, 1.000000000000000000 ) ) ;
#199 = EDGE_CURVE ( 'NONE', #110, #98, #56, .T. ) ;
#200 = APPROVAL_PERSON_ORGANIZATION ( #270, #171, #42 ) ;
#201 = CARTESIAN_POINT ( 'NONE',  ( 0.0000000000000000000, -0.5000000000000000000, 0.08503937007874007300 ) ) ;
#202 = ORIENTED_EDGE ( 'NONE', *, *, #240, .T. ) ;
#203 = CARTESIAN_POINT ( 'NONE',  ( 0.0000000000000000000, 0.0000000000000000000, 2.669685039370079100 ) ) ;
#204 = DIRECTION ( 'NONE',  ( 0.0000000000000000000, 1.000000000000000000, 1.907645367807718400E-016 ) ) ;
#205 = AXIS2_PLACEMENT_3D ( 'NONE', #222, #160, #196 ) ;
#206 = APPROVAL_STATUS ( 'not_yet_approved' ) ;
#207 = EDGE_LOOP ( 'NONE', ( #295, #202, #288 ) ) ;
#208 = ADVANCED_FACE ( 'NONE', ( #26 ), #57, .T. ) ;
#209 = CARTESIAN_POINT ( 'NONE',  ( 0.0000000000000000000, -4.978729311056655800E-016, 0.04069847585315663300 ) ) ;
#210 = COORDINATED_UNIVERSAL_TIME_OFFSET ( 5, 0, .BEHIND. ) ;
#211 = CIRCLE ( 'NONE', #326, 2.754724409448819200 ) ;
#212 = DIRECTION ( 'NONE',  ( -0.0000000000000000000, -1.836909530733547200E-016, 1.000000000000000000 ) ) ;
#213 = APPROVAL ( #124, 'UNSPECIFIED' ) ;
#214 = CIRCLE ( 'NONE', #291, 0.5000000000000000000 ) ;
#215 = EDGE_LOOP ( 'NONE', ( #310, #89, #67, #85 ) ) ;
#216 = DIRECTION ( 'NONE',  ( 0.0000000000000000000, 0.6397240186718965400, -0.7686046967943137600 ) ) ;
#217 = ORIENTED_EDGE ( 'NONE', *, *, #274, .T. ) ;
#218 = EDGE_CURVE ( 'NONE', #37, #284, #134, .T. ) ;
#219 = APPROVAL_PERSON_ORGANIZATION ( #285, #303, #329 ) ;
#220 = ORIENTED_EDGE ( 'NONE', *, *, #178, .F. ) ;
#221 = VECTOR ( 'NONE', #253, 39.37007874015748100 ) ;
#222 = CARTESIAN_POINT ( 'NONE',  ( 0.0000000000000000000, 0.0000000000000000000, 0.08503937007874015600 ) ) ;
#223 = CARTESIAN_POINT ( 'NONE',  ( 6.028544163365446200E-017, 0.4922679884161506600, -0.04069847585315630700 ) ) ;
#224 = AXIS2_PLACEMENT_3D ( 'NONE', #23, #212, #47 ) ;
#225 = CARTESIAN_POINT ( 'NONE',  ( 0.0000000000000000000, 8.145021120422325800E-018, 0.04069847585315663300 ) ) ;
#226 = ORIENTED_EDGE ( 'NONE', *, *, #218, .T. ) ;
#227 = DIRECTION ( 'NONE',  ( -0.0000000000000000000, -1.836909530733565900E-016, 1.000000000000000000 ) ) ;
#228 = CARTESIAN_POINT ( 'NONE',  ( 0.0000000000000000000, 0.0000000000000000000, -2.669685039370079100 ) ) ;
#229 = CARTESIAN_POINT ( 'NONE',  ( 0.0000000000000000000, 0.4922679884161491000, 0.04069847585315672400 ) ) ;
#230 = CC_DESIGN_APPROVAL ( #213, ( #109 ) ) ;
#231 = PERSON ( 'UNSPECIFIED', 'UNSPECIFIED', 'UNSPECIFIED', ('UNSPECIFIED'), ('UNSPECIFIED'), ('UNSPECIFIED') ) ;
#232 = ADVANCED_FACE ( 'NONE', ( #277 ), #54, .T. ) ;
#233 = PERSON_AND_ORGANIZATION_ROLE ( 'creator' ) ;
#234 = VECTOR ( 'NONE', #143, 39.37007874015748100 ) ;
#235 = EDGE_LOOP ( 'NONE', ( #271, #27, #123, #311 ) ) ;
#236 = ORIENTED_EDGE ( 'NONE', *, *, #100, .F. ) ;
#237 = DIRECTION ( 'NONE',  ( 0.0000000000000000000, 1.000000000000000000, 1.907645367807719600E-016 ) ) ;
#238 = EDGE_CURVE ( 'NONE', #6, #244, #127, .T. ) ;
#239 = DIRECTION ( 'NONE',  ( 0.0000000000000000000, -1.000000000000000000, -1.983391140176426500E-016 ) ) ;
#240 = EDGE_CURVE ( 'NONE', #242, #163, #2, .T. ) ;
#241 = APPROVAL_DATE_TIME ( #301, #213 ) ;
#242 = VERTEX_POINT ( 'NONE', #176 ) ;
#243 = ORIENTED_EDGE ( 'NONE', *, *, #257, .T. ) ;
#244 = VERTEX_POINT ( 'NONE', #99 ) ;
#245 = UNCERTAINTY_MEASURE_WITH_UNIT (LENGTH_MEASURE( 1.000000000000000100E-005 ), #328, 'distance_accuracy_value', 'NONE');
#246 = FACE_OUTER_BOUND ( 'NONE', #13, .T. ) ;
#247 = APPROVAL_PERSON_ORGANIZATION ( #314, #213, #309 ) ;
#248 = CC_DESIGN_SECURITY_CLASSIFICATION ( #109, ( #30 ) ) ;
#249 = ORIENTED_EDGE ( 'NONE', *, *, #199, .F. ) ;
#250 = EDGE_LOOP ( 'NONE', ( #79, #226, #330 ) ) ;
#251 = DIRECTION ( 'NONE',  ( 1.000000000000000000, -0.0000000000000000000, 0.0000000000000000000 ) ) ;
#252 = SPHERICAL_SURFACE ( 'NONE', #106, 2.754724409448819200 ) ;
#253 = DIRECTION ( 'NONE',  ( -0.0000000000000000000, -1.836909530733566100E-016, 1.000000000000000000 ) ) ;
#254 = ORIENTED_EDGE ( 'NONE', *, *, #307, .T. ) ;
#255 = DIRECTION ( 'NONE',  ( 0.0000000000000000000, -0.6397240186718663500, 0.7686046967943387400 ) ) ;
#256 = COORDINATED_UNIVERSAL_TIME_OFFSET ( 5, 0, .BEHIND. ) ;
#257 = EDGE_CURVE ( 'NONE', #37, #149, #263, .T. ) ;
#258 = DIRECTION ( 'NONE',  ( -1.224646799147353200E-016, -1.000000000000000000, 0.0000000000000000000 ) ) ;
#259 = DIRECTION ( 'NONE',  ( 1.000000000000000000, 0.0000000000000000000, 0.0000000000000000000 ) ) ;
#260 = AXIS2_PLACEMENT_3D ( 'NONE', #158, #327, #289 ) ;
#261 = DIRECTION ( 'NONE',  ( 0.0000000000000000000, 1.000000000000000000, 1.983391140176426500E-016 ) ) ;
#262 = SECURITY_CLASSIFICATION_LEVEL ( 'unclassified' ) ;
#263 = CIRCLE ( 'NONE', #87, 2.754724409448819200 ) ;
#264 = DIRECTION ( 'NONE',  ( 7.834359718042194600E-017, -0.6397240186718962100, -0.7686046967943138700 ) ) ;
#265 = DATE_AND_TIME ( #322, #55 ) ;
#266 = CARTESIAN_POINT ( 'NONE',  ( 6.028544163365433800E-017, -0.4922679884161491000, 0.04069847585315653600 ) ) ;
#267 = FACE_OUTER_BOUND ( 'NONE', #215, .T. ) ;
#268 = CARTESIAN_POINT ( 'NONE',  ( 0.0000000000000000000, -0.5000000000000000000, 0.03140875052542294000 ) ) ;
#269 = VECTOR ( 'NONE', #62, 39.37007874015748100 ) ;
#270 = PERSON_AND_ORGANIZATION ( #231, #81 ) ;
#271 = ORIENTED_EDGE ( 'NONE', *, *, #144, .F. ) ;
#272 = CC_DESIGN_PERSON_AND_ORGANIZATION_ASSIGNMENT ( #14, #173, ( #318 ) ) ;
#273 = ORIENTED_EDGE ( 'NONE', *, *, #144, .T. ) ;
#274 = EDGE_CURVE ( 'NONE', #163, #242, #197, .T. ) ;
#275 = AXIS2_PLACEMENT_3D ( 'NONE', #225, #167, #16 ) ;
#276 = CIRCLE ( 'NONE', #162, 0.4922679884161499900 ) ;
#277 = FACE_OUTER_BOUND ( 'NONE', #24, .T. ) ;
#278 = DIRECTION ( 'NONE',  ( 0.0000000000000000000, -1.000000000000000000, -1.707404996040164500E-016 ) ) ;
#279 = PERSON_AND_ORGANIZATION_ROLE ( 'design_owner' ) ;
#280 = ORIENTED_EDGE ( 'NONE', *, *, #240, .F. ) ;
#281 = DATE_TIME_ROLE ( 'classification_date' ) ;
#282 = ADVANCED_FACE ( 'NONE', ( #319 ), #113, .T. ) ;
#283 =( LENGTH_UNIT ( ) NAMED_UNIT ( * ) SI_UNIT ( $, .METRE. ) );
#284 = VERTEX_POINT ( 'NONE', #4 ) ;
#285 = PERSON_AND_ORGANIZATION ( #231, #81 ) ;
#286 = CC_DESIGN_APPROVAL ( #303, ( #318 ) ) ;
#287 = CIRCLE ( 'NONE', #188, 0.4922679884161499900 ) ;
#288 = ORIENTED_EDGE ( 'NONE', *, *, #116, .T. ) ;
#289 = DIRECTION ( 'NONE',  ( 0.0000000000000000000, -1.000000000000000000, -1.878145495644180800E-016 ) ) ;
#290 = AXIS2_PLACEMENT_3D ( 'NONE', #19, #35, #118 ) ;
#291 = AXIS2_PLACEMENT_3D ( 'NONE', #120, #305, #88 ) ;
#292 = EDGE_LOOP ( 'NONE', ( #133, #273, #236, #220 ) ) ;
#293 = ORIENTED_EDGE ( 'NONE', *, *, #294, .T. ) ;
#294 = EDGE_CURVE ( 'NONE', #244, #98, #45, .T. ) ;
#295 = ORIENTED_EDGE ( 'NONE', *, *, #307, .F. ) ;
#296 = ORIENTED_EDGE ( 'NONE', *, *, #238, .T. ) ;
#297 = CARTESIAN_POINT ( 'NONE',  ( 0.0000000000000000000, 4.978729311056654800E-016, -0.04069847585315608500 ) ) ;
#298 = ORIENTED_EDGE ( 'NONE', *, *, #34, .T. ) ;
#299 = CARTESIAN_POINT ( 'NONE',  ( 0.0000000000000000000, 4.978729311056654800E-016, -0.04069847585315608500 ) ) ;
#300 = CALENDAR_DATE ( 2017, 18, 4 ) ;
#301 = DATE_AND_TIME ( #29, #107 ) ;
#302 = DIRECTION ( 'NONE',  ( -1.000000000000000000, 0.0000000000000000000, -0.0000000000000000000 ) ) ;
#303 = APPROVAL ( #150, 'UNSPECIFIED' ) ;
#304 = CARTESIAN_POINT ( 'NONE',  ( 0.0000000000000000000, 0.0000000000000000000, 0.0000000000000000000 ) ) ;
#305 = DIRECTION ( 'NONE',  ( 0.0000000000000000000, 1.836909530733547200E-016, -1.000000000000000000 ) ) ;
#306 = APPLICATION_PROTOCOL_DEFINITION ( 'international standard', 'config_control_design', 1994, #121 ) ;
#307 = EDGE_CURVE ( 'NONE', #242, #77, #316, .T. ) ;
#308 = ADVANCED_FACE ( 'NONE', ( #187 ), #252, .T. ) ;
#309 = APPROVAL_ROLE ( '' ) ;
#310 = ORIENTED_EDGE ( 'NONE', *, *, #238, .F. ) ;
#311 = ORIENTED_EDGE ( 'NONE', *, *, #140, .F. ) ;
#312 = ORIENTED_EDGE ( 'NONE', *, *, #78, .F. ) ;
#313 = DIRECTION ( 'NONE',  ( 1.000000000000000000, -1.224646799147353200E-016, -2.249565377136128000E-032 ) ) ;
#314 = PERSON_AND_ORGANIZATION ( #231, #81 ) ;
#315 = CARTESIAN_POINT ( 'NONE',  ( 0.0000000000000000000, -0.5000000000000000000, -0.03140875052542312100 ) ) ;
#316 = CIRCLE ( 'NONE', #64, 2.754724409448819200 ) ;
#317 = PERSON_AND_ORGANIZATION ( #231, #81 ) ;
#318 = PRODUCT_DEFINITION ( 'UNKNOWN', '', #30, #185 ) ;
#319 = FACE_OUTER_BOUND ( 'NONE', #33, .T. ) ;
#320 = CARTESIAN_POINT ( 'NONE',  ( 6.123233995736766000E-017, 0.5000000000000000000, -0.03140875052542293300 ) ) ;
#321 = DIRECTION ( 'NONE',  ( 0.0000000000000000000, -1.000000000000000000, -1.907645367807714900E-016 ) ) ;
#322 = CALENDAR_DATE ( 2017, 18, 4 ) ;
#323 = CIRCLE ( 'NONE', #192, 0.5000000000000000000 ) ;
#324 = DIRECTION ( 'NONE',  ( 0.0000000000000000000, -1.000000000000000000, -1.907645367807714900E-016 ) ) ;
#325 = CARTESIAN_POINT ( 'NONE',  ( 6.123233995736766000E-017, 0.5000000000000000000, 0.08503937007874024000 ) ) ;
#326 = AXIS2_PLACEMENT_3D ( 'NONE', #58, #251, #86 ) ;
#327 = DIRECTION ( 'NONE',  ( -0.0000000000000000000, -1.836909530733547200E-016, 1.000000000000000000 ) ) ;
#328 =( CONVERSION_BASED_UNIT ( 'INCH', #101 ) LENGTH_UNIT ( ) NAMED_UNIT ( #9 ) );
#329 = APPROVAL_ROLE ( '' ) ;
#330 = ORIENTED_EDGE ( 'NONE', *, *, #157, .T. ) ;
ENDSEC;
END-ISO-10303-21;
