ISO-10303-21;
HEADER;
FILE_DESCRIPTION (( 'STEP AP203' ),
    '1' );
FILE_NAME ('Web Model 19822_19826.step',
    '2022-01-03T21:58:48',
    ( '' ),
    ( '' ),
    'SwSTEP 2.0',
    'SolidWorks 2018',
    '' );
FILE_SCHEMA (( 'CONFIG_CONTROL_DESIGN' ));
ENDSEC;

DATA;
#1 = DIRECTION ( 'NONE',  ( 0.000000000000000000, 0.000000000000000000, 1.000000000000000000 ) ) ;
#2 = SHAPE_DEFINITION_REPRESENTATION ( #130, #6 ) ;
#3 = PERSON_AND_ORGANIZATION_ROLE ( 'design_supplier' ) ;
#4 = CYLINDRICAL_SURFACE ( 'NONE', #139, 12.50000000000000000 ) ;
#5 = AXIS2_PLACEMENT_3D ( 'NONE', #129, #144, #93 ) ;
#6 = ADVANCED_BREP_SHAPE_REPRESENTATION ( 'Web Model 19822_19826', ( #105, #112 ), #44 ) ;
#7 = APPROVAL_STATUS ( 'not_yet_approved' ) ;
#8 = ADVANCED_FACE ( 'NONE', ( #84 ), #4, .T. ) ;
#9 = DIRECTION ( 'NONE',  ( 0.000000000000000000, 0.000000000000000000, 1.000000000000000000 ) ) ;
#10 = ORIENTED_EDGE ( 'NONE', *, *, #164, .T. ) ;
#11 = CC_DESIGN_APPROVAL ( #31, ( #127 ) ) ;
#12 = APPLICATION_PROTOCOL_DEFINITION ( 'international standard', 'config_control_design', 1994, #86 ) ;
#13 = LOCAL_TIME ( 16, 58, 48.00000000000000000, #74 ) ;
#14 = LOCAL_TIME ( 16, 58, 48.00000000000000000, #123 ) ;
#15 = FACE_OUTER_BOUND ( 'NONE', #165, .T. ) ;
#16 = AXIS2_PLACEMENT_3D ( 'NONE', #85, #118, #38 ) ;
#17 = ORIENTED_EDGE ( 'NONE', *, *, #142, .T. ) ;
#18 = CARTESIAN_POINT ( 'NONE',  ( 0.000000000000000000, 0.000000000000000000, 1.500000000000000000 ) ) ;
#19 = CC_DESIGN_APPROVAL ( #32, ( #65 ) ) ;
#20 = APPROVAL_STATUS ( 'not_yet_approved' ) ;
#21 = ORIENTED_EDGE ( 'NONE', *, *, #125, .F. ) ;
#22 = EDGE_CURVE ( 'NONE', #126, #136, #113, .T. ) ;
#23 = DATE_AND_TIME ( #132, #175 ) ;
#24 = PRODUCT_DEFINITION_FORMATION_WITH_SPECIFIED_SOURCE ( 'ANY', '', #35, .NOT_KNOWN. ) ;
#25 = ADVANCED_FACE ( 'NONE', ( #150 ), #46, .T. ) ;
#26 =( NAMED_UNIT ( * ) SI_UNIT ( $, .STERADIAN. ) SOLID_ANGLE_UNIT ( ) );
#27 = PERSON_AND_ORGANIZATION ( #33, #61 ) ;
#28 = MECHANICAL_CONTEXT ( 'NONE', #86, 'mechanical' ) ;
#29 = PERSON_AND_ORGANIZATION_ROLE ( 'classification_officer' ) ;
#30 = AXIS2_PLACEMENT_3D ( 'NONE', #69, #37, #121 ) ;
#31 = APPROVAL ( #7, 'UNSPECIFIED' ) ;
#32 = APPROVAL ( #163, 'UNSPECIFIED' ) ;
#33 = PERSON ( 'UNSPECIFIED', 'UNSPECIFIED', 'UNSPECIFIED', ('UNSPECIFIED'), ('UNSPECIFIED'), ('UNSPECIFIED') ) ;
#34 = DIRECTION ( 'NONE',  ( -1.000000000000000000, 0.000000000000000000, 0.000000000000000000 ) ) ;
#35 = PRODUCT ( 'Web Model 19822_19826', 'Web Model 19822_19826', '', ( #28 ) ) ;
#36 = VECTOR ( 'NONE', #131, 1000.000000000000000 ) ;
#37 = DIRECTION ( 'NONE',  ( 0.000000000000000000, 0.000000000000000000, 1.000000000000000000 ) ) ;
#38 = DIRECTION ( 'NONE',  ( -1.000000000000000000, 0.000000000000000000, 0.000000000000000000 ) ) ;
#39 = FACE_OUTER_BOUND ( 'NONE', #153, .T. ) ;
#40 = PERSON_AND_ORGANIZATION ( #33, #61 ) ;
#41 = PERSON_AND_ORGANIZATION_ROLE ( 'design_owner' ) ;
#42 = DATE_AND_TIME ( #73, #111 ) ;
#43 = ORIENTED_EDGE ( 'NONE', *, *, #141, .F. ) ;
#44 =( GEOMETRIC_REPRESENTATION_CONTEXT ( 3 ) GLOBAL_UNCERTAINTY_ASSIGNED_CONTEXT ( ( #114 ) ) GLOBAL_UNIT_ASSIGNED_CONTEXT ( ( #70, #173, #26 ) ) REPRESENTATION_CONTEXT ( 'NONE', 'WORKASPACE' ) );
#45 = PERSON_AND_ORGANIZATION ( #33, #61 ) ;
#46 = PLANE ( 'NONE',  #5 ) ;
#47 = CIRCLE ( 'NONE', #148, 12.50000000000000000 ) ;
#48 = APPLICATION_PROTOCOL_DEFINITION ( 'international standard', 'config_control_design', 1994, #106 ) ;
#49 = CC_DESIGN_PERSON_AND_ORGANIZATION_ASSIGNMENT ( #76, #41, ( #35 ) ) ;
#50 = DIRECTION ( 'NONE',  ( 1.000000000000000000, 0.000000000000000000, 0.000000000000000000 ) ) ;
#51 = DIRECTION ( 'NONE',  ( 1.000000000000000000, 0.000000000000000000, 0.000000000000000000 ) ) ;
#52 = ORIENTED_EDGE ( 'NONE', *, *, #22, .F. ) ;
#53 = CC_DESIGN_DATE_AND_TIME_ASSIGNMENT ( #169, #56, ( #65 ) ) ;
#54 = CARTESIAN_POINT ( 'NONE',  ( 0.000000000000000000, 0.000000000000000000, 0.000000000000000000 ) ) ;
#55 = VERTEX_POINT ( 'NONE', #108 ) ;
#56 = DATE_TIME_ROLE ( 'classification_date' ) ;
#57 = ORIENTED_EDGE ( 'NONE', *, *, #125, .T. ) ;
#58 = CC_DESIGN_PERSON_AND_ORGANIZATION_ASSIGNMENT ( #64, #87, ( #24 ) ) ;
#59 = APPROVAL_PERSON_ORGANIZATION ( #172, #31, #140 ) ;
#60 = ORIENTED_EDGE ( 'NONE', *, *, #142, .F. ) ;
#61 = ORGANIZATION ( 'UNSPECIFIED', 'UNSPECIFIED', '' ) ;
#62 = PRODUCT_RELATED_PRODUCT_CATEGORY ( 'detail', '', ( #35 ) ) ;
#63 = PERSON_AND_ORGANIZATION_ROLE ( 'creator' ) ;
#64 = PERSON_AND_ORGANIZATION ( #33, #61 ) ;
#65 = SECURITY_CLASSIFICATION ( '', '', #99 ) ;
#66 = APPROVAL_PERSON_ORGANIZATION ( #170, #151, #128 ) ;
#67 = CALENDAR_DATE ( 2022, 3, 1 ) ;
#68 = PLANE ( 'NONE',  #72 ) ;
#69 = CARTESIAN_POINT ( 'NONE',  ( 0.000000000000000000, 0.000000000000000000, 0.000000000000000000 ) ) ;
#70 =( LENGTH_UNIT ( ) NAMED_UNIT ( * ) SI_UNIT ( .MILLI., .METRE. ) );
#71 = APPROVAL_ROLE ( '' ) ;
#72 = AXIS2_PLACEMENT_3D ( 'NONE', #54, #143, #161 ) ;
#73 = CALENDAR_DATE ( 2022, 3, 1 ) ;
#74 = COORDINATED_UNIVERSAL_TIME_OFFSET ( 5, 0, .BEHIND. ) ;
#75 = DIRECTION ( 'NONE',  ( -0.000000000000000000, -0.000000000000000000, -1.000000000000000000 ) ) ;
#76 = PERSON_AND_ORGANIZATION ( #33, #61 ) ;
#77 = EDGE_LOOP ( 'NONE', ( #104, #80 ) ) ;
#78 = CARTESIAN_POINT ( 'NONE',  ( -12.50000000000000000, 0.000000000000000000, 1.500000000000000000 ) ) ;
#79 = LOCAL_TIME ( 16, 58, 48.00000000000000000, #122 ) ;
#80 = ORIENTED_EDGE ( 'NONE', *, *, #141, .T. ) ;
#81 = AXIS2_PLACEMENT_3D ( 'NONE', #171, #97, #51 ) ;
#82 = DIRECTION ( 'NONE',  ( 1.000000000000000000, 0.000000000000000000, 0.000000000000000000 ) ) ;
#83 = CARTESIAN_POINT ( 'NONE',  ( 12.50000000000000000, 1.530808498934191521E-15, 1.500000000000000000 ) ) ;
#84 = FACE_OUTER_BOUND ( 'NONE', #138, .T. ) ;
#85 = CARTESIAN_POINT ( 'NONE',  ( 0.000000000000000000, 0.000000000000000000, 1.500000000000000000 ) ) ;
#86 = APPLICATION_CONTEXT ( 'configuration controlled 3d designs of mechanical parts and assemblies' ) ;
#87 = PERSON_AND_ORGANIZATION_ROLE ( 'creator' ) ;
#88 = ORIENTED_EDGE ( 'NONE', *, *, #164, .F. ) ;
#89 = CC_DESIGN_PERSON_AND_ORGANIZATION_ASSIGNMENT ( #168, #3, ( #24 ) ) ;
#90 = APPROVAL_DATE_TIME ( #135, #31 ) ;
#91 = ORIENTED_EDGE ( 'NONE', *, *, #133, .F. ) ;
#92 = ORIENTED_EDGE ( 'NONE', *, *, #133, .T. ) ;
#93 = DIRECTION ( 'NONE',  ( 1.000000000000000000, 0.000000000000000000, -0.000000000000000000 ) ) ;
#94 = CALENDAR_DATE ( 2022, 3, 1 ) ;
#95 = CC_DESIGN_SECURITY_CLASSIFICATION ( #65, ( #24 ) ) ;
#96 = DIRECTION ( 'NONE',  ( -0.000000000000000000, -0.000000000000000000, -1.000000000000000000 ) ) ;
#97 = DIRECTION ( 'NONE',  ( 0.000000000000000000, 0.000000000000000000, 1.000000000000000000 ) ) ;
#98 = LINE ( 'NONE', #120, #137 ) ;
#99 = SECURITY_CLASSIFICATION_LEVEL ( 'unclassified' ) ;
#100 = COORDINATED_UNIVERSAL_TIME_OFFSET ( 5, 0, .BEHIND. ) ;
#101 = LINE ( 'NONE', #83, #36 ) ;
#102 = AXIS2_PLACEMENT_3D ( 'NONE', #158, #110, #82 ) ;
#103 = APPROVAL_DATE_TIME ( #23, #151 ) ;
#104 = ORIENTED_EDGE ( 'NONE', *, *, #22, .T. ) ;
#105 = MANIFOLD_SOLID_BREP ( 'Boss-Extrude1', #157 ) ;
#106 = APPLICATION_CONTEXT ( 'configuration controlled 3d designs of mechanical parts and assemblies' ) ;
#107 = CALENDAR_DATE ( 2022, 3, 1 ) ;
#108 = CARTESIAN_POINT ( 'NONE',  ( -12.50000000000000000, 0.000000000000000000, 0.000000000000000000 ) ) ;
#109 = CARTESIAN_POINT ( 'NONE',  ( 0.000000000000000000, 0.000000000000000000, 1.500000000000000000 ) ) ;
#110 = DIRECTION ( 'NONE',  ( 0.000000000000000000, 0.000000000000000000, 1.000000000000000000 ) ) ;
#111 = LOCAL_TIME ( 16, 58, 48.00000000000000000, #149 ) ;
#112 = AXIS2_PLACEMENT_3D ( 'NONE', #146, #1, #50 ) ;
#113 = CIRCLE ( 'NONE', #81, 12.50000000000000000 ) ;
#114 = UNCERTAINTY_MEASURE_WITH_UNIT (LENGTH_MEASURE( 1.000000000000000082E-05 ), #70, 'distance_accuracy_value', 'NONE');
#115 = CARTESIAN_POINT ( 'NONE',  ( 12.50000000000000000, 1.530808498934191521E-15, 0.000000000000000000 ) ) ;
#116 = VERTEX_POINT ( 'NONE', #115 ) ;
#117 = CC_DESIGN_APPROVAL ( #151, ( #24 ) ) ;
#118 = DIRECTION ( 'NONE',  ( -0.000000000000000000, -0.000000000000000000, -1.000000000000000000 ) ) ;
#119 = ADVANCED_FACE ( 'NONE', ( #39 ), #68, .F. ) ;
#120 = CARTESIAN_POINT ( 'NONE',  ( -12.50000000000000000, 0.000000000000000000, 1.500000000000000000 ) ) ;
#121 = DIRECTION ( 'NONE',  ( 1.000000000000000000, 0.000000000000000000, 0.000000000000000000 ) ) ;
#122 = COORDINATED_UNIVERSAL_TIME_OFFSET ( 5, 0, .BEHIND. ) ;
#123 = COORDINATED_UNIVERSAL_TIME_OFFSET ( 5, 0, .BEHIND. ) ;
#124 = CIRCLE ( 'NONE', #30, 12.50000000000000000 ) ;
#125 = EDGE_CURVE ( 'NONE', #136, #116, #101, .T. ) ;
#126 = VERTEX_POINT ( 'NONE', #78 ) ;
#127 = PRODUCT_DEFINITION ( 'UNKNOWN', '', #24, #147 ) ;
#128 = APPROVAL_ROLE ( '' ) ;
#129 = CARTESIAN_POINT ( 'NONE',  ( 0.000000000000000000, 0.000000000000000000, 1.500000000000000000 ) ) ;
#130 = PRODUCT_DEFINITION_SHAPE ( 'NONE', 'NONE',  #127 ) ;
#131 = DIRECTION ( 'NONE',  ( -0.000000000000000000, -0.000000000000000000, -1.000000000000000000 ) ) ;
#132 = CALENDAR_DATE ( 2022, 3, 1 ) ;
#133 = EDGE_CURVE ( 'NONE', #116, #55, #154, .T. ) ;
#134 = CC_DESIGN_PERSON_AND_ORGANIZATION_ASSIGNMENT ( #45, #63, ( #127 ) ) ;
#135 = DATE_AND_TIME ( #107, #79 ) ;
#136 = VERTEX_POINT ( 'NONE', #159 ) ;
#137 = VECTOR ( 'NONE', #96, 1000.000000000000000 ) ;
#138 = EDGE_LOOP ( 'NONE', ( #43, #57, #92, #60 ) ) ;
#139 = AXIS2_PLACEMENT_3D ( 'NONE', #18, #75, #34 ) ;
#140 = APPROVAL_ROLE ( '' ) ;
#141 = EDGE_CURVE ( 'NONE', #136, #126, #47, .T. ) ;
#142 = EDGE_CURVE ( 'NONE', #126, #55, #98, .T. ) ;
#143 = DIRECTION ( 'NONE',  ( 0.000000000000000000, 0.000000000000000000, 1.000000000000000000 ) ) ;
#144 = DIRECTION ( 'NONE',  ( 0.000000000000000000, 0.000000000000000000, 1.000000000000000000 ) ) ;
#145 = ADVANCED_FACE ( 'NONE', ( #15 ), #156, .T. ) ;
#146 = CARTESIAN_POINT ( 'NONE',  ( 0.000000000000000000, 0.000000000000000000, 0.000000000000000000 ) ) ;
#147 = DESIGN_CONTEXT ( 'detailed design', #106, 'design' ) ;
#148 = AXIS2_PLACEMENT_3D ( 'NONE', #109, #9, #174 ) ;
#149 = COORDINATED_UNIVERSAL_TIME_OFFSET ( 5, 0, .BEHIND. ) ;
#150 = FACE_OUTER_BOUND ( 'NONE', #77, .T. ) ;
#151 = APPROVAL ( #20, 'UNSPECIFIED' ) ;
#152 = APPROVAL_DATE_TIME ( #160, #32 ) ;
#153 = EDGE_LOOP ( 'NONE', ( #88, #91 ) ) ;
#154 = CIRCLE ( 'NONE', #102, 12.50000000000000000 ) ;
#155 = DATE_TIME_ROLE ( 'creation_date' ) ;
#156 = CYLINDRICAL_SURFACE ( 'NONE', #16, 12.50000000000000000 ) ;
#157 = CLOSED_SHELL ( 'NONE', ( #8, #145, #25, #119 ) ) ;
#158 = CARTESIAN_POINT ( 'NONE',  ( 0.000000000000000000, 0.000000000000000000, 0.000000000000000000 ) ) ;
#159 = CARTESIAN_POINT ( 'NONE',  ( 12.50000000000000000, 1.530808498934191521E-15, 1.500000000000000000 ) ) ;
#160 = DATE_AND_TIME ( #94, #13 ) ;
#161 = DIRECTION ( 'NONE',  ( 1.000000000000000000, 0.000000000000000000, -0.000000000000000000 ) ) ;
#162 = CC_DESIGN_PERSON_AND_ORGANIZATION_ASSIGNMENT ( #27, #29, ( #65 ) ) ;
#163 = APPROVAL_STATUS ( 'not_yet_approved' ) ;
#164 = EDGE_CURVE ( 'NONE', #55, #116, #124, .T. ) ;
#165 = EDGE_LOOP ( 'NONE', ( #21, #52, #17, #10 ) ) ;
#166 = CC_DESIGN_DATE_AND_TIME_ASSIGNMENT ( #42, #155, ( #127 ) ) ;
#167 = APPROVAL_PERSON_ORGANIZATION ( #40, #32, #71 ) ;
#168 = PERSON_AND_ORGANIZATION ( #33, #61 ) ;
#169 = DATE_AND_TIME ( #67, #14 ) ;
#170 = PERSON_AND_ORGANIZATION ( #33, #61 ) ;
#171 = CARTESIAN_POINT ( 'NONE',  ( 0.000000000000000000, 0.000000000000000000, 1.500000000000000000 ) ) ;
#172 = PERSON_AND_ORGANIZATION ( #33, #61 ) ;
#173 =( NAMED_UNIT ( * ) PLANE_ANGLE_UNIT ( ) SI_UNIT ( $, .RADIAN. ) );
#174 = DIRECTION ( 'NONE',  ( 1.000000000000000000, 0.000000000000000000, 0.000000000000000000 ) ) ;
#175 = LOCAL_TIME ( 16, 58, 48.00000000000000000, #100 ) ;
ENDSEC;
END-ISO-10303-21;
