ISO-10303-21;
HEADER;
FILE_DESCRIPTION (( 'STEP AP203' ),
    '1' );
FILE_NAME ('34522_Default.step',
    '2017-06-22T14:51:58',
    ( '' ),
    ( '' ),
    'SwSTEP 2.0',
    'SolidWorks 2016',
    '' );
FILE_SCHEMA (( 'CONFIG_CONTROL_DESIGN' ));
ENDSEC;

DATA;
#1 = APPROVAL_PERSON_ORGANIZATION ( #52, #98, #134 ) ;
#2 =( LENGTH_UNIT ( ) NAMED_UNIT ( * ) SI_UNIT ( .MILLI., .METRE. ) );
#3 = DIRECTION ( 'NONE',  ( 1.000000000000000000, 0.0000000000000000000, 0.0000000000000000000 ) ) ;
#4 = PERSON_AND_ORGANIZATION ( #172, #94 ) ;
#5 = PLANE ( 'NONE',  #33 ) ;
#6 = APPROVAL ( #79, 'UNSPECIFIED' ) ;
#7 = CARTESIAN_POINT ( 'NONE',  ( 2.500000000000000000, 3.061616997868383100E-016, -0.5500000000000000400 ) ) ;
#8 = APPROVAL_PERSON_ORGANIZATION ( #12, #6, #70 ) ;
#9 = CARTESIAN_POINT ( 'NONE',  ( 2.500000000000000000, 3.061616997868383100E-016, 0.5500000000000000400 ) ) ;
#10 =( GEOMETRIC_REPRESENTATION_CONTEXT ( 3 ) GLOBAL_UNCERTAINTY_ASSIGNED_CONTEXT ( ( #11 ) ) GLOBAL_UNIT_ASSIGNED_CONTEXT ( ( #2, #146, #91 ) ) REPRESENTATION_CONTEXT ( 'NONE', 'WORKASPACE' ) );
#11 = UNCERTAINTY_MEASURE_WITH_UNIT (LENGTH_MEASURE( 1.000000000000000100E-005 ), #2, 'distance_accuracy_value', 'NONE');
#12 = PERSON_AND_ORGANIZATION ( #172, #94 ) ;
#13 = PERSON_AND_ORGANIZATION ( #172, #94 ) ;
#14 = PERSON_AND_ORGANIZATION_ROLE ( 'design_supplier' ) ;
#15 = CARTESIAN_POINT ( 'NONE',  ( -2.500000000000000000, 0.0000000000000000000, 0.5500000000000000400 ) ) ;
#16 = CC_DESIGN_SECURITY_CLASSIFICATION ( #88, ( #168 ) ) ;
#17 = MECHANICAL_CONTEXT ( 'NONE', #105, 'mechanical' ) ;
#18 = ADVANCED_FACE ( 'NONE', ( #34 ), #58, .T. ) ;
#19 = AXIS2_PLACEMENT_3D ( 'NONE', #68, #90, #158 ) ;
#20 = DATE_AND_TIME ( #103, #174 ) ;
#21 = MANIFOLD_SOLID_BREP ( 'Boss-Extrude1', #132 ) ;
#22 = PERSON_AND_ORGANIZATION_ROLE ( 'design_owner' ) ;
#23 = PRODUCT_DEFINITION ( 'UNKNOWN', '', #168, #141 ) ;
#24 = ORIENTED_EDGE ( 'NONE', *, *, #76, .F. ) ;
#25 = CIRCLE ( 'NONE', #131, 2.500000000000000000 ) ;
#26 = CC_DESIGN_APPROVAL ( #6, ( #23 ) ) ;
#27 = ORIENTED_EDGE ( 'NONE', *, *, #175, .T. ) ;
#28 = DIRECTION ( 'NONE',  ( 1.000000000000000000, 0.0000000000000000000, 0.0000000000000000000 ) ) ;
#29 = APPROVAL_STATUS ( 'not_yet_approved' ) ;
#30 = DIRECTION ( 'NONE',  ( -0.0000000000000000000, -0.0000000000000000000, -1.000000000000000000 ) ) ;
#31 = ORIENTED_EDGE ( 'NONE', *, *, #97, .F. ) ;
#32 = DIRECTION ( 'NONE',  ( 0.0000000000000000000, 0.0000000000000000000, 1.000000000000000000 ) ) ;
#33 = AXIS2_PLACEMENT_3D ( 'NONE', #47, #49, #151 ) ;
#34 = FACE_OUTER_BOUND ( 'NONE', #62, .T. ) ;
#35 = ORIENTED_EDGE ( 'NONE', *, *, #76, .T. ) ;
#36 = AXIS2_PLACEMENT_3D ( 'NONE', #126, #60, #28 ) ;
#37 = DATE_TIME_ROLE ( 'classification_date' ) ;
#38 = EDGE_CURVE ( 'NONE', #108, #163, #112, .T. ) ;
#39 = COORDINATED_UNIVERSAL_TIME_OFFSET ( 5, 0, .BEHIND. ) ;
#40 = PERSON_AND_ORGANIZATION ( #172, #94 ) ;
#41 = ADVANCED_BREP_SHAPE_REPRESENTATION ( '34522_Default', ( #21, #61 ), #10 ) ;
#42 = CARTESIAN_POINT ( 'NONE',  ( 0.0000000000000000000, 0.0000000000000000000, 0.5500000000000000400 ) ) ;
#43 = ORIENTED_EDGE ( 'NONE', *, *, #97, .T. ) ;
#44 = COORDINATED_UNIVERSAL_TIME_OFFSET ( 5, 0, .BEHIND. ) ;
#45 = CC_DESIGN_DATE_AND_TIME_ASSIGNMENT ( #80, #138, ( #23 ) ) ;
#46 = CARTESIAN_POINT ( 'NONE',  ( 0.0000000000000000000, 0.0000000000000000000, 0.5500000000000000400 ) ) ;
#47 = CARTESIAN_POINT ( 'NONE',  ( 0.0000000000000000000, 0.0000000000000000000, -0.5500000000000000400 ) ) ;
#48 = CARTESIAN_POINT ( 'NONE',  ( 0.0000000000000000000, 0.0000000000000000000, -0.5500000000000000400 ) ) ;
#49 = DIRECTION ( 'NONE',  ( 0.0000000000000000000, 0.0000000000000000000, 1.000000000000000000 ) ) ;
#50 = CALENDAR_DATE ( 2017, 22, 6 ) ;
#51 = APPROVAL_DATE_TIME ( #56, #98 ) ;
#52 = PERSON_AND_ORGANIZATION ( #172, #94 ) ;
#53 = DIRECTION ( 'NONE',  ( -1.000000000000000000, 0.0000000000000000000, 0.0000000000000000000 ) ) ;
#54 = CALENDAR_DATE ( 2017, 22, 6 ) ;
#55 = DIRECTION ( 'NONE',  ( 0.0000000000000000000, 0.0000000000000000000, 1.000000000000000000 ) ) ;
#56 = DATE_AND_TIME ( #50, #119 ) ;
#57 = APPROVAL_PERSON_ORGANIZATION ( #40, #87, #124 ) ;
#58 = PLANE ( 'NONE',  #19 ) ;
#59 = CC_DESIGN_PERSON_AND_ORGANIZATION_ASSIGNMENT ( #145, #122, ( #168 ) ) ;
#60 = DIRECTION ( 'NONE',  ( 0.0000000000000000000, 0.0000000000000000000, 1.000000000000000000 ) ) ;
#61 = AXIS2_PLACEMENT_3D ( 'NONE', #100, #77, #143 ) ;
#62 = EDGE_LOOP ( 'NONE', ( #43, #35 ) ) ;
#63 = DIRECTION ( 'NONE',  ( 0.0000000000000000000, 0.0000000000000000000, 1.000000000000000000 ) ) ;
#64 = VECTOR ( 'NONE', #81, 1000.000000000000000 ) ;
#65 = CARTESIAN_POINT ( 'NONE',  ( 2.500000000000000000, 3.061616997868383100E-016, 0.5500000000000000400 ) ) ;
#66 = EDGE_LOOP ( 'NONE', ( #83, #31, #152, #99 ) ) ;
#67 = EDGE_CURVE ( 'NONE', #163, #108, #93, .T. ) ;
#68 = CARTESIAN_POINT ( 'NONE',  ( 0.0000000000000000000, 0.0000000000000000000, 0.5500000000000000400 ) ) ;
#69 = CARTESIAN_POINT ( 'NONE',  ( -2.500000000000000000, 0.0000000000000000000, -0.5500000000000000400 ) ) ;
#70 = APPROVAL_ROLE ( '' ) ;
#71 = COORDINATED_UNIVERSAL_TIME_OFFSET ( 5, 0, .BEHIND. ) ;
#72 = LINE ( 'NONE', #15, #127 ) ;
#73 = VERTEX_POINT ( 'NONE', #128 ) ;
#74 = ORIENTED_EDGE ( 'NONE', *, *, #38, .T. ) ;
#75 = CC_DESIGN_PERSON_AND_ORGANIZATION_ASSIGNMENT ( #4, #14, ( #168 ) ) ;
#76 = EDGE_CURVE ( 'NONE', #101, #73, #136, .T. ) ;
#77 = DIRECTION ( 'NONE',  ( 0.0000000000000000000, 0.0000000000000000000, 1.000000000000000000 ) ) ;
#78 = ADVANCED_FACE ( 'NONE', ( #117 ), #5, .F. ) ;
#79 = APPROVAL_STATUS ( 'not_yet_approved' ) ;
#80 = DATE_AND_TIME ( #54, #165 ) ;
#81 = DIRECTION ( 'NONE',  ( -0.0000000000000000000, -0.0000000000000000000, -1.000000000000000000 ) ) ;
#82 = CARTESIAN_POINT ( 'NONE',  ( 0.0000000000000000000, 0.0000000000000000000, 0.5500000000000000400 ) ) ;
#83 = ORIENTED_EDGE ( 'NONE', *, *, #175, .F. ) ;
#84 = CC_DESIGN_DATE_AND_TIME_ASSIGNMENT ( #142, #37, ( #88 ) ) ;
#85 = DIRECTION ( 'NONE',  ( -1.000000000000000000, 0.0000000000000000000, 0.0000000000000000000 ) ) ;
#86 = PERSON_AND_ORGANIZATION_ROLE ( 'creator' ) ;
#87 = APPROVAL ( #169, 'UNSPECIFIED' ) ;
#88 = SECURITY_CLASSIFICATION ( '', '', #118 ) ;
#89 = FACE_OUTER_BOUND ( 'NONE', #95, .T. ) ;
#90 = DIRECTION ( 'NONE',  ( 0.0000000000000000000, 0.0000000000000000000, 1.000000000000000000 ) ) ;
#91 =( NAMED_UNIT ( * ) SI_UNIT ( $, .STERADIAN. ) SOLID_ANGLE_UNIT ( ) );
#92 = AXIS2_PLACEMENT_3D ( 'NONE', #46, #30, #53 ) ;
#93 = CIRCLE ( 'NONE', #36, 2.500000000000000000 ) ;
#94 = ORGANIZATION ( 'UNSPECIFIED', 'UNSPECIFIED', '' ) ;
#95 = EDGE_LOOP ( 'NONE', ( #24, #27, #74, #104 ) ) ;
#96 = CARTESIAN_POINT ( 'NONE',  ( 0.0000000000000000000, 0.0000000000000000000, 0.5500000000000000400 ) ) ;
#97 = EDGE_CURVE ( 'NONE', #73, #101, #25, .T. ) ;
#98 = APPROVAL ( #29, 'UNSPECIFIED' ) ;
#99 = ORIENTED_EDGE ( 'NONE', *, *, #67, .T. ) ;
#100 = CARTESIAN_POINT ( 'NONE',  ( 0.0000000000000000000, 0.0000000000000000000, 0.0000000000000000000 ) ) ;
#101 = VERTEX_POINT ( 'NONE', #65 ) ;
#102 = ADVANCED_FACE ( 'NONE', ( #111 ), #115, .T. ) ;
#103 = CALENDAR_DATE ( 2017, 22, 6 ) ;
#104 = ORIENTED_EDGE ( 'NONE', *, *, #120, .F. ) ;
#105 = APPLICATION_CONTEXT ( 'configuration controlled 3d designs of mechanical parts and assemblies' ) ;
#106 = APPROVAL_DATE_TIME ( #133, #6 ) ;
#107 = CC_DESIGN_PERSON_AND_ORGANIZATION_ASSIGNMENT ( #135, #121, ( #88 ) ) ;
#108 = VERTEX_POINT ( 'NONE', #7 ) ;
#109 = DIRECTION ( 'NONE',  ( -0.0000000000000000000, -0.0000000000000000000, -1.000000000000000000 ) ) ;
#110 = PRODUCT_DEFINITION_SHAPE ( 'NONE', 'NONE',  #23 ) ;
#111 = FACE_OUTER_BOUND ( 'NONE', #66, .T. ) ;
#112 = CIRCLE ( 'NONE', #156, 2.500000000000000000 ) ;
#113 = CC_DESIGN_PERSON_AND_ORGANIZATION_ASSIGNMENT ( #13, #86, ( #23 ) ) ;
#114 = APPLICATION_CONTEXT ( 'configuration controlled 3d designs of mechanical parts and assemblies' ) ;
#115 = CYLINDRICAL_SURFACE ( 'NONE', #144, 2.500000000000000000 ) ;
#116 = DIRECTION ( 'NONE',  ( 1.000000000000000000, 0.0000000000000000000, 0.0000000000000000000 ) ) ;
#117 = FACE_OUTER_BOUND ( 'NONE', #130, .T. ) ;
#118 = SECURITY_CLASSIFICATION_LEVEL ( 'unclassified' ) ;
#119 = LOCAL_TIME ( 10, 51, 58.00000000000000000, #71 ) ;
#120 = EDGE_CURVE ( 'NONE', #73, #163, #72, .T. ) ;
#121 = PERSON_AND_ORGANIZATION_ROLE ( 'classification_officer' ) ;
#122 = PERSON_AND_ORGANIZATION_ROLE ( 'creator' ) ;
#123 = LOCAL_TIME ( 10, 51, 58.00000000000000000, #173 ) ;
#124 = APPROVAL_ROLE ( '' ) ;
#125 = CC_DESIGN_APPROVAL ( #87, ( #168 ) ) ;
#126 = CARTESIAN_POINT ( 'NONE',  ( 0.0000000000000000000, 0.0000000000000000000, -0.5500000000000000400 ) ) ;
#127 = VECTOR ( 'NONE', #109, 1000.000000000000000 ) ;
#128 = CARTESIAN_POINT ( 'NONE',  ( -2.500000000000000000, 0.0000000000000000000, 0.5500000000000000400 ) ) ;
#129 = APPLICATION_PROTOCOL_DEFINITION ( 'international standard', 'config_control_design', 1994, #114 ) ;
#130 = EDGE_LOOP ( 'NONE', ( #154, #147 ) ) ;
#131 = AXIS2_PLACEMENT_3D ( 'NONE', #96, #55, #161 ) ;
#132 = CLOSED_SHELL ( 'NONE', ( #159, #102, #18, #78 ) ) ;
#133 = DATE_AND_TIME ( #148, #123 ) ;
#134 = APPROVAL_ROLE ( '' ) ;
#135 = PERSON_AND_ORGANIZATION ( #172, #94 ) ;
#136 = CIRCLE ( 'NONE', #149, 2.500000000000000000 ) ;
#137 = PRODUCT_RELATED_PRODUCT_CATEGORY ( 'detail', '', ( #157 ) ) ;
#138 = DATE_TIME_ROLE ( 'creation_date' ) ;
#139 = LOCAL_TIME ( 10, 51, 58.00000000000000000, #167 ) ;
#140 = CC_DESIGN_PERSON_AND_ORGANIZATION_ASSIGNMENT ( #170, #22, ( #157 ) ) ;
#141 = DESIGN_CONTEXT ( 'detailed design', #114, 'design' ) ;
#142 = DATE_AND_TIME ( #171, #139 ) ;
#143 = DIRECTION ( 'NONE',  ( 1.000000000000000000, 0.0000000000000000000, 0.0000000000000000000 ) ) ;
#144 = AXIS2_PLACEMENT_3D ( 'NONE', #82, #153, #85 ) ;
#145 = PERSON_AND_ORGANIZATION ( #172, #94 ) ;
#146 =( NAMED_UNIT ( * ) PLANE_ANGLE_UNIT ( ) SI_UNIT ( $, .RADIAN. ) );
#147 = ORIENTED_EDGE ( 'NONE', *, *, #38, .F. ) ;
#148 = CALENDAR_DATE ( 2017, 22, 6 ) ;
#149 = AXIS2_PLACEMENT_3D ( 'NONE', #42, #63, #3 ) ;
#150 = CYLINDRICAL_SURFACE ( 'NONE', #92, 2.500000000000000000 ) ;
#151 = DIRECTION ( 'NONE',  ( 1.000000000000000000, 0.0000000000000000000, -0.0000000000000000000 ) ) ;
#152 = ORIENTED_EDGE ( 'NONE', *, *, #120, .T. ) ;
#153 = DIRECTION ( 'NONE',  ( -0.0000000000000000000, -0.0000000000000000000, -1.000000000000000000 ) ) ;
#154 = ORIENTED_EDGE ( 'NONE', *, *, #67, .F. ) ;
#155 = SHAPE_DEFINITION_REPRESENTATION ( #110, #41 ) ;
#156 = AXIS2_PLACEMENT_3D ( 'NONE', #48, #32, #116 ) ;
#157 = PRODUCT ( '34522_Default', '34522_Default', '', ( #17 ) ) ;
#158 = DIRECTION ( 'NONE',  ( 1.000000000000000000, 0.0000000000000000000, -0.0000000000000000000 ) ) ;
#159 = ADVANCED_FACE ( 'NONE', ( #89 ), #150, .T. ) ;
#160 = LINE ( 'NONE', #9, #64 ) ;
#161 = DIRECTION ( 'NONE',  ( 1.000000000000000000, 0.0000000000000000000, 0.0000000000000000000 ) ) ;
#162 = APPROVAL_DATE_TIME ( #20, #87 ) ;
#163 = VERTEX_POINT ( 'NONE', #69 ) ;
#164 = APPLICATION_PROTOCOL_DEFINITION ( 'international standard', 'config_control_design', 1994, #105 ) ;
#165 = LOCAL_TIME ( 10, 51, 58.00000000000000000, #39 ) ;
#166 = CC_DESIGN_APPROVAL ( #98, ( #88 ) ) ;
#167 = COORDINATED_UNIVERSAL_TIME_OFFSET ( 5, 0, .BEHIND. ) ;
#168 = PRODUCT_DEFINITION_FORMATION_WITH_SPECIFIED_SOURCE ( 'ANY', '', #157, .NOT_KNOWN. ) ;
#169 = APPROVAL_STATUS ( 'not_yet_approved' ) ;
#170 = PERSON_AND_ORGANIZATION ( #172, #94 ) ;
#171 = CALENDAR_DATE ( 2017, 22, 6 ) ;
#172 = PERSON ( 'UNSPECIFIED', 'UNSPECIFIED', 'UNSPECIFIED', ('UNSPECIFIED'), ('UNSPECIFIED'), ('UNSPECIFIED') ) ;
#173 = COORDINATED_UNIVERSAL_TIME_OFFSET ( 5, 0, .BEHIND. ) ;
#174 = LOCAL_TIME ( 10, 51, 58.00000000000000000, #44 ) ;
#175 = EDGE_CURVE ( 'NONE', #101, #108, #160, .T. ) ;
ENDSEC;
END-ISO-10303-21;
