ISO-10303-21;
HEADER;
FILE_DESCRIPTION (( 'STEP AP203' ),
    '1' );
FILE_NAME ('20222-E0W.STEP',
    '2009-09-14T20:09:54',
    ( 'Admin' ),
    ( 'Thorlabs, Inc.' ),
    'SwSTEP 2.0',
    'SolidWorks 2007',
    '' );
FILE_SCHEMA (( 'CONFIG_CONTROL_DESIGN' ));
ENDSEC;

DATA;
#1 = ORIENTED_EDGE ( 'NONE', *, *, #2, .T. ) ;
#2 = EDGE_CURVE ( 'NONE', #40, #39, #81, .T. ) ;
#3 = ADVANCED_FACE ( 'NONE', ( #70 ), #77, .T. ) ;
#4 = ORIENTED_EDGE ( 'NONE', *, *, #32, .T. ) ;
#5 = ORIENTED_EDGE ( 'NONE', *, *, #13, .T. ) ;
#6 = ADVANCED_FACE ( 'NONE', ( #74 ), #90, .T. ) ;
#7 = ORIENTED_EDGE ( 'NONE', *, *, #43, .F. ) ;
#8 = ORIENTED_EDGE ( 'NONE', *, *, #33, .T. ) ;
#9 = VERTEX_POINT ( 'NONE', #73 ) ;
#10 = ORIENTED_EDGE ( 'NONE', *, *, #47, .T. ) ;
#11 = EDGE_LOOP ( 'NONE', ( #18, #5, #1 ) ) ;
#12 = ORIENTED_EDGE ( 'NONE', *, *, #42, .T. ) ;
#13 = EDGE_CURVE ( 'NONE', #14, #40, #69, .T. ) ;
#14 = VERTEX_POINT ( 'NONE', #59 ) ;
#15 = EDGE_LOOP ( 'NONE', ( #8, #48, #34, #37 ) ) ;
#16 = ADVANCED_FACE ( 'NONE', ( #58 ), #93, .F. ) ;
#17 = VERTEX_POINT ( 'NONE', #94 ) ;
#18 = ORIENTED_EDGE ( 'NONE', *, *, #29, .F. ) ;
#19 = ADVANCED_FACE ( 'NONE', ( #61 ), #85, .T. ) ;
#20 = CLOSED_SHELL ( 'NONE', ( #19, #41, #31, #16, #3, #6 ) ) ;
#21 = VERTEX_POINT ( 'NONE', #86 ) ;
#22 = ORIENTED_EDGE ( 'NONE', *, *, #23, .T. ) ;
#23 = EDGE_CURVE ( 'NONE', #21, #9, #101, .T. ) ;
#24 = ORIENTED_EDGE ( 'NONE', *, *, #2, .F. ) ;
#25 = MANIFOLD_SOLID_BREP ( 'NONE', #20 ) ;
#26 = EDGE_LOOP ( 'NONE', ( #27, #28, #10 ) ) ;
#27 = ORIENTED_EDGE ( 'NONE', *, *, #13, .F. ) ;
#28 = ORIENTED_EDGE ( 'NONE', *, *, #29, .T. ) ;
#29 = EDGE_CURVE ( 'NONE', #14, #39, #96, .T. ) ;
#30 = ORIENTED_EDGE ( 'NONE', *, *, #33, .F. ) ;
#31 = ADVANCED_FACE ( 'NONE', ( #117 ), #147, .F. ) ;
#32 = EDGE_CURVE ( 'NONE', #9, #17, #144, .T. ) ;
#33 = EDGE_CURVE ( 'NONE', #17, #9, #138, .T. ) ;
#34 = ORIENTED_EDGE ( 'NONE', *, *, #47, .F. ) ;
#35 = EDGE_CURVE ( 'NONE', #21, #17, #167, .T. ) ;
#36 = AXIS2_PLACEMENT_3D ( 'NONE', #38, #49, #46 ) ;
#37 = ORIENTED_EDGE ( 'NONE', *, *, #42, .F. ) ;
#38 = CARTESIAN_POINT ( 'NONE',  ( 0.0000000000000000000, 0.0000000000000000000, 10.47600000000001300 ) ) ;
#39 = VERTEX_POINT ( 'NONE', #163 ) ;
#40 = VERTEX_POINT ( 'NONE', #162 ) ;
#41 = ADVANCED_FACE ( 'NONE', ( #161 ), #159, .T. ) ;
#42 = EDGE_CURVE ( 'NONE', #17, #39, #158, .T. ) ;
#43 = EDGE_CURVE ( 'NONE', #9, #40, #151, .T. ) ;
#44 = ORIENTED_EDGE ( 'NONE', *, *, #35, .F. ) ;
#45 = EDGE_LOOP ( 'NONE', ( #44, #22, #30 ) ) ;
#46 = DIRECTION ( 'NONE',  ( -1.224606353822377300E-016, -1.000000000000000000, 0.0000000000000000000 ) ) ;
#47 = EDGE_CURVE ( 'NONE', #39, #40, #127, .T. ) ;
#48 = ORIENTED_EDGE ( 'NONE', *, *, #43, .T. ) ;
#49 = DIRECTION ( 'NONE',  ( -1.000000000000000000, 1.224606353822377300E-016, 2.249491082733206400E-032 ) ) ;
#50 = MECHANICAL_CONTEXT ( 'NONE', #53, 'mechanical' ) ;
#51 = APPLICATION_PROTOCOL_DEFINITION ( 'international standard', 'config_control_design', 1994, #53 ) ;
#52 = PRODUCT ( '20222-E0W', '20222-E0W', '', ( #50 ) ) ;
#53 = APPLICATION_CONTEXT ( 'configuration controlled 3d designs of mechanical parts and assemblies' ) ;
#54 = APPROVAL_DATE_TIME ( #55, #109 ) ;
#55 = DATE_AND_TIME ( #104, #105 ) ;
#56 = CC_DESIGN_APPROVAL ( #109, ( #112 ) ) ;
#57 = PERSON ( 'UNSPECIFIED', 'UNSPECIFIED', 'UNSPECIFIED', ('UNSPECIFIED'), ('UNSPECIFIED'), ('UNSPECIFIED') ) ;
#58 = FACE_OUTER_BOUND ( 'NONE', #11, .T. ) ;
#59 = CARTESIAN_POINT ( 'NONE',  ( 0.0000000000000000000, 2.210659389920157800E-015, 1.450000000000003300 ) ) ;
#60 = CARTESIAN_POINT ( 'NONE',  ( 0.0000000000000000000, 0.0000000000000000000, 1.450000000000000000 ) ) ;
#61 = FACE_OUTER_BOUND ( 'NONE', #15, .T. ) ;
#62 = DIRECTION ( 'NONE',  ( 0.0000000000000000000, 1.000000000000000000, 1.921918320382013300E-016 ) ) ;
#63 = DIRECTION ( 'NONE',  ( -1.000000000000000000, 0.0000000000000000000, 0.0000000000000000000 ) ) ;
#64 = AXIS2_PLACEMENT_3D ( 'NONE', #95, #63, #62 ) ;
#65 = DIRECTION ( 'NONE',  ( 0.0000000000000000000, 0.0000000000000000000, -1.000000000000000000 ) ) ;
#66 = DIRECTION ( 'NONE',  ( 1.000000000000000000, 0.0000000000000000000, 0.0000000000000000000 ) ) ;
#67 = CARTESIAN_POINT ( 'NONE',  ( 0.0000000000000000000, 0.0000000000000000000, 10.47600000000001300 ) ) ;
#68 = AXIS2_PLACEMENT_3D ( 'NONE', #67, #66, #65 ) ;
#69 = CIRCLE ( 'NONE', #68, 9.026000000000010500 ) ;
#70 = FACE_OUTER_BOUND ( 'NONE', #171, .T. ) ;
#71 = DIRECTION ( 'NONE',  ( 0.0000000000000000000, -1.000000000000000000, -1.707404996040164000E-016 ) ) ;
#72 = DIRECTION ( 'NONE',  ( 0.0000000000000000000, -1.836909530733566100E-016, 1.000000000000000000 ) ) ;
#73 = CARTESIAN_POINT ( 'NONE',  ( 7.776250346772097400E-016, 6.350000000000002300, 2.059072789438528300 ) ) ;
#74 = FACE_OUTER_BOUND ( 'NONE', #175, .T. ) ;
#75 = DIRECTION ( 'NONE',  ( 0.0000000000000000000, -1.000000000000000000, -2.312964634635743000E-016 ) ) ;
#76 = AXIS2_PLACEMENT_3D ( 'NONE', #89, #87, #75 ) ;
#77 = SPHERICAL_SURFACE ( 'NONE', #76, 7.500000000000000000 ) ;
#78 = DIRECTION ( 'NONE',  ( 0.0000000000000000000, -1.836909530733566100E-016, 1.000000000000000000 ) ) ;
#79 = CARTESIAN_POINT ( 'NONE',  ( 0.0000000000000000000, -4.797036870022222700E-016, 4.061471490436731300 ) ) ;
#80 = AXIS2_PLACEMENT_3D ( 'NONE', #79, #78, #88 ) ;
#81 = CIRCLE ( 'NONE', #80, 6.350000000000001400 ) ;
#82 = DIRECTION ( 'NONE',  ( 0.0000000000000000000, -1.000000000000000000, -1.707404996040164000E-016 ) ) ;
#83 = DIRECTION ( 'NONE',  ( 0.0000000000000000000, -1.836909530733566100E-016, 1.000000000000000000 ) ) ;
#84 = AXIS2_PLACEMENT_3D ( 'NONE', #60, #83, #82 ) ;
#85 = CYLINDRICAL_SURFACE ( 'NONE', #84, 6.350000000000001400 ) ;
#86 = CARTESIAN_POINT ( 'NONE',  ( 0.0000000000000000000, 9.184547653667831400E-016, -1.450000000000000000 ) ) ;
#87 = DIRECTION ( 'NONE',  ( 1.000000000000000000, 0.0000000000000000000, 0.0000000000000000000 ) ) ;
#88 = DIRECTION ( 'NONE',  ( 0.0000000000000000000, -1.000000000000000000, -1.365923996832131400E-016 ) ) ;
#89 = CARTESIAN_POINT ( 'NONE',  ( 0.0000000000000000000, 0.0000000000000000000, 6.049999999999999800 ) ) ;
#90 = CYLINDRICAL_SURFACE ( 'NONE', #92, 6.350000000000001400 ) ;
#91 = CARTESIAN_POINT ( 'NONE',  ( 0.0000000000000000000, 0.0000000000000000000, 1.450000000000000000 ) ) ;
#92 = AXIS2_PLACEMENT_3D ( 'NONE', #91, #72, #71 ) ;
#93 = SPHERICAL_SURFACE ( 'NONE', #64, 9.026000000000010500 ) ;
#94 = CARTESIAN_POINT ( 'NONE',  ( 0.0000000000000000000, -6.350000000000001400, 2.059072789438525700 ) ) ;
#95 = CARTESIAN_POINT ( 'NONE',  ( 0.0000000000000000000, 0.0000000000000000000, 10.47600000000001300 ) ) ;
#96 = CIRCLE ( 'NONE', #36, 9.026000000000010500 ) ;
#97 = DIRECTION ( 'NONE',  ( 1.224606353822377300E-016, 1.000000000000000000, 0.0000000000000000000 ) ) ;
#98 = DIRECTION ( 'NONE',  ( 1.000000000000000000, -1.224606353822377300E-016, -2.249491082733206400E-032 ) ) ;
#99 = CARTESIAN_POINT ( 'NONE',  ( 0.0000000000000000000, 0.0000000000000000000, 6.049999999999999800 ) ) ;
#100 = AXIS2_PLACEMENT_3D ( 'NONE', #99, #98, #97 ) ;
#101 = CIRCLE ( 'NONE', #100, 7.500000000000000000 ) ;
#102 = CC_DESIGN_PERSON_AND_ORGANIZATION_ASSIGNMENT ( #177, #176, ( #112 ) ) ;
#103 = DIRECTION ( 'NONE',  ( -1.000000000000000000, 0.0000000000000000000, 0.0000000000000000000 ) ) ;
#104 = CALENDAR_DATE ( 2009, 14, 9 ) ;
#105 = LOCAL_TIME ( 16, 9, 54.00000000000000000, #106 ) ;
#106 = COORDINATED_UNIVERSAL_TIME_OFFSET ( 5, 0, .BEHIND. ) ;
#107 = APPROVAL_PERSON_ORGANIZATION ( #111, #109, #108 ) ;
#108 = APPROVAL_ROLE ( '' ) ;
#109 = APPROVAL ( #110, 'UNSPECIFIED' ) ;
#110 = APPROVAL_STATUS ( 'not_yet_approved' ) ;
#111 = PERSON_AND_ORGANIZATION ( #57, #129 ) ;
#112 = PRODUCT_DEFINITION ( 'UNKNOWN', '', #191, #113 ) ;
#113 = DESIGN_CONTEXT ( 'detailed design', #115, 'design' ) ;
#114 = APPLICATION_PROTOCOL_DEFINITION ( 'international standard', 'config_control_design', 1994, #115 ) ;
#115 = APPLICATION_CONTEXT ( 'configuration controlled 3d designs of mechanical parts and assemblies' ) ;
#116 = CC_DESIGN_PERSON_AND_ORGANIZATION_ASSIGNMENT ( #130, #168, ( #52 ) ) ;
#117 = FACE_OUTER_BOUND ( 'NONE', #26, .T. ) ;
#118 = UNCERTAINTY_MEASURE_WITH_UNIT (LENGTH_MEASURE( 1.000000000000000100E-005 ), #121, 'distance_accuracy_value', 'NONE');
#119 =( NAMED_UNIT ( * ) SI_UNIT ( $, .STERADIAN. ) SOLID_ANGLE_UNIT ( ) );
#120 =( NAMED_UNIT ( * ) PLANE_ANGLE_UNIT ( ) SI_UNIT ( $, .RADIAN. ) );
#121 =( LENGTH_UNIT ( ) NAMED_UNIT ( * ) SI_UNIT ( .MILLI., .METRE. ) );
#122 = DIRECTION ( 'NONE',  ( 0.0000000000000000000, 0.0000000000000000000, 1.000000000000000000 ) ) ;
#123 = DIRECTION ( 'NONE',  ( 0.0000000000000000000, -1.000000000000000000, -1.365923996832131400E-016 ) ) ;
#124 = DIRECTION ( 'NONE',  ( 0.0000000000000000000, -1.836909530733566100E-016, 1.000000000000000000 ) ) ;
#125 = CARTESIAN_POINT ( 'NONE',  ( 0.0000000000000000000, -4.797036870022222700E-016, 4.061471490436731300 ) ) ;
#126 = AXIS2_PLACEMENT_3D ( 'NONE', #125, #124, #123 ) ;
#127 = CIRCLE ( 'NONE', #126, 6.350000000000001400 ) ;
#128 = CARTESIAN_POINT ( 'NONE',  ( 0.0000000000000000000, 0.0000000000000000000, 10.47600000000001300 ) ) ;
#129 = ORGANIZATION ( 'UNSPECIFIED', 'UNSPECIFIED', '' ) ;
#130 = PERSON_AND_ORGANIZATION ( #57, #129 ) ;
#131 = DIRECTION ( 'NONE',  ( 1.000000000000000000, 0.0000000000000000000, 0.0000000000000000000 ) ) ;
#132 = CARTESIAN_POINT ( 'NONE',  ( 0.0000000000000000000, 0.0000000000000000000, 0.0000000000000000000 ) ) ;
#133 = AXIS2_PLACEMENT_3D ( 'NONE', #132, #122, #131 ) ;
#134 = DIRECTION ( 'NONE',  ( 0.0000000000000000000, -1.000000000000000000, -2.048885995248196700E-016 ) ) ;
#135 = DIRECTION ( 'NONE',  ( 0.0000000000000000000, -1.836909530733566100E-016, 1.000000000000000000 ) ) ;
#136 = CARTESIAN_POINT ( 'NONE',  ( 0.0000000000000000000, -1.118811611830108400E-016, 2.059072789438526600 ) ) ;
#137 = AXIS2_PLACEMENT_3D ( 'NONE', #136, #135, #134 ) ;
#138 = CIRCLE ( 'NONE', #137, 6.350000000000002300 ) ;
#139 = CARTESIAN_POINT ( 'NONE',  ( 0.0000000000000000000, 0.0000000000000000000, 6.049999999999999800 ) ) ;
#140 = DIRECTION ( 'NONE',  ( 0.0000000000000000000, -1.000000000000000000, -2.048885995248196700E-016 ) ) ;
#141 = DIRECTION ( 'NONE',  ( 0.0000000000000000000, -1.836909530733566100E-016, 1.000000000000000000 ) ) ;
#142 = CARTESIAN_POINT ( 'NONE',  ( 0.0000000000000000000, -1.118811611830108400E-016, 2.059072789438526600 ) ) ;
#143 = AXIS2_PLACEMENT_3D ( 'NONE', #142, #141, #140 ) ;
#144 = CIRCLE ( 'NONE', #143, 6.350000000000002300 ) ;
#145 = DIRECTION ( 'NONE',  ( 0.0000000000000000000, 1.000000000000000000, 1.921918320382013300E-016 ) ) ;
#146 = AXIS2_PLACEMENT_3D ( 'NONE', #128, #103, #145 ) ;
#147 = SPHERICAL_SURFACE ( 'NONE', #146, 9.026000000000010500 ) ;
#148 = DIRECTION ( 'NONE',  ( 0.0000000000000000000, -1.836909530733566100E-016, 1.000000000000000000 ) ) ;
#149 = VECTOR ( 'NONE', #148, 1000.000000000000000 ) ;
#150 = CARTESIAN_POINT ( 'NONE',  ( 7.776250346772097400E-016, 6.350000000000001400, 1.450000000000001100 ) ) ;
#151 = LINE ( 'NONE', #150, #149 ) ;
#152 = DIRECTION ( 'NONE',  ( 0.0000000000000000000, -1.836909530733566100E-016, 1.000000000000000000 ) ) ;
#153 = VECTOR ( 'NONE', #152, 1000.000000000000000 ) ;
#154 = CARTESIAN_POINT ( 'NONE',  ( 0.0000000000000000000, -6.350000000000001400, 1.449999999999998800 ) ) ;
#155 = DIRECTION ( 'NONE',  ( 0.0000000000000000000, -1.000000000000000000, -2.312964634635743000E-016 ) ) ;
#156 = DIRECTION ( 'NONE',  ( 1.000000000000000000, 0.0000000000000000000, 0.0000000000000000000 ) ) ;
#157 = AXIS2_PLACEMENT_3D ( 'NONE', #160, #156, #155 ) ;
#158 = LINE ( 'NONE', #154, #153 ) ;
#159 = SPHERICAL_SURFACE ( 'NONE', #157, 7.500000000000000000 ) ;
#160 = CARTESIAN_POINT ( 'NONE',  ( 0.0000000000000000000, 0.0000000000000000000, 6.049999999999999800 ) ) ;
#161 = FACE_OUTER_BOUND ( 'NONE', #45, .T. ) ;
#162 = CARTESIAN_POINT ( 'NONE',  ( 0.0000000000000000000, 6.350000000000003200, 4.061471490436733100 ) ) ;
#163 = CARTESIAN_POINT ( 'NONE',  ( -7.776250346772098400E-016, -6.350000000000001400, 4.061471490436730400 ) ) ;
#164 = DIRECTION ( 'NONE',  ( 0.0000000000000000000, 0.0000000000000000000, 1.000000000000000000 ) ) ;
#165 = DIRECTION ( 'NONE',  ( -1.000000000000000000, 0.0000000000000000000, 0.0000000000000000000 ) ) ;
#166 = AXIS2_PLACEMENT_3D ( 'NONE', #139, #165, #164 ) ;
#167 = CIRCLE ( 'NONE', #166, 7.500000000000000000 ) ;
#168 = PERSON_AND_ORGANIZATION_ROLE ( 'design_owner' ) ;
#169 = ADVANCED_BREP_SHAPE_REPRESENTATION ( '20222-E0W', ( #25, #133 ), #170 ) ;
#170 =( GEOMETRIC_REPRESENTATION_CONTEXT ( 3 ) GLOBAL_UNCERTAINTY_ASSIGNED_CONTEXT ( ( #118 ) ) GLOBAL_UNIT_ASSIGNED_CONTEXT ( ( #121, #120, #119 ) ) REPRESENTATION_CONTEXT ( 'NONE', 'WORKASPACE' ) );
#171 = EDGE_LOOP ( 'NONE', ( #172, #173, #174 ) ) ;
#172 = ORIENTED_EDGE ( 'NONE', *, *, #23, .F. ) ;
#173 = ORIENTED_EDGE ( 'NONE', *, *, #35, .T. ) ;
#174 = ORIENTED_EDGE ( 'NONE', *, *, #32, .F. ) ;
#175 = EDGE_LOOP ( 'NONE', ( #7, #4, #12, #24 ) ) ;
#176 = PERSON_AND_ORGANIZATION_ROLE ( 'creator' ) ;
#177 = PERSON_AND_ORGANIZATION ( #57, #129 ) ;
#178 = PERSON_AND_ORGANIZATION ( #57, #129 ) ;
#179 = APPROVAL_STATUS ( 'not_yet_approved' ) ;
#180 = APPROVAL_ROLE ( '' ) ;
#181 = APPROVAL_PERSON_ORGANIZATION ( #185, #183, #182 ) ;
#182 = APPROVAL_ROLE ( '' ) ;
#183 = APPROVAL ( #184, 'UNSPECIFIED' ) ;
#184 = APPROVAL_STATUS ( 'not_yet_approved' ) ;
#185 = PERSON_AND_ORGANIZATION ( #57, #129 ) ;
#186 = CC_DESIGN_DATE_AND_TIME_ASSIGNMENT ( #210, #187, ( #215 ) ) ;
#187 = DATE_TIME_ROLE ( 'classification_date' ) ;
#188 = CALENDAR_DATE ( 2009, 14, 9 ) ;
#189 = LOCAL_TIME ( 16, 9, 54.00000000000000000, #211 ) ;
#190 = APPROVAL ( #179, 'UNSPECIFIED' ) ;
#191 = PRODUCT_DEFINITION_FORMATION_WITH_SPECIFIED_SOURCE ( 'ANY', '', #52, .NOT_KNOWN. ) ;
#192 = PRODUCT_RELATED_PRODUCT_CATEGORY ( 'detail', '', ( #52 ) ) ;
#193 = CC_DESIGN_SECURITY_CLASSIFICATION ( #215, ( #191 ) ) ;
#194 = CC_DESIGN_APPROVAL ( #183, ( #215 ) ) ;
#195 = APPROVAL_DATE_TIME ( #196, #183 ) ;
#196 = DATE_AND_TIME ( #197, #198 ) ;
#197 = CALENDAR_DATE ( 2009, 14, 9 ) ;
#198 = LOCAL_TIME ( 16, 9, 54.00000000000000000, #199 ) ;
#199 = COORDINATED_UNIVERSAL_TIME_OFFSET ( 5, 0, .BEHIND. ) ;
#200 = APPROVAL_DATE_TIME ( #216, #190 ) ;
#201 = CALENDAR_DATE ( 2009, 14, 9 ) ;
#202 = LOCAL_TIME ( 16, 9, 54.00000000000000000, #203 ) ;
#203 = COORDINATED_UNIVERSAL_TIME_OFFSET ( 5, 0, .BEHIND. ) ;
#204 = APPROVAL_PERSON_ORGANIZATION ( #178, #190, #180 ) ;
#205 = PERSON_AND_ORGANIZATION ( #57, #129 ) ;
#206 = CC_DESIGN_PERSON_AND_ORGANIZATION_ASSIGNMENT ( #208, #207, ( #191 ) ) ;
#207 = PERSON_AND_ORGANIZATION_ROLE ( 'creator' ) ;
#208 = PERSON_AND_ORGANIZATION ( #57, #129 ) ;
#209 = CC_DESIGN_APPROVAL ( #190, ( #191 ) ) ;
#210 = DATE_AND_TIME ( #188, #189 ) ;
#211 = COORDINATED_UNIVERSAL_TIME_OFFSET ( 5, 0, .BEHIND. ) ;
#212 = CC_DESIGN_PERSON_AND_ORGANIZATION_ASSIGNMENT ( #214, #213, ( #215 ) ) ;
#213 = PERSON_AND_ORGANIZATION_ROLE ( 'classification_officer' ) ;
#214 = PERSON_AND_ORGANIZATION ( #57, #129 ) ;
#215 = SECURITY_CLASSIFICATION ( '', '', #220 ) ;
#216 = DATE_AND_TIME ( #201, #202 ) ;
#217 = DATE_AND_TIME ( #225, #218 ) ;
#218 = LOCAL_TIME ( 16, 9, 54.00000000000000000, #219 ) ;
#219 = COORDINATED_UNIVERSAL_TIME_OFFSET ( 5, 0, .BEHIND. ) ;
#220 = SECURITY_CLASSIFICATION_LEVEL ( 'unclassified' ) ;
#221 = CC_DESIGN_PERSON_AND_ORGANIZATION_ASSIGNMENT ( #205, #222, ( #191 ) ) ;
#222 = PERSON_AND_ORGANIZATION_ROLE ( 'design_supplier' ) ;
#223 = DATE_TIME_ROLE ( 'creation_date' ) ;
#224 = CC_DESIGN_DATE_AND_TIME_ASSIGNMENT ( #217, #223, ( #112 ) ) ;
#225 = CALENDAR_DATE ( 2009, 14, 9 ) ;
#226 = SHAPE_DEFINITION_REPRESENTATION ( #227, #169 ) ;
#227 = PRODUCT_DEFINITION_SHAPE ( 'NONE', 'NONE',  #112 ) ;
ENDSEC;
END-ISO-10303-21;
