ISO-10303-21;
HEADER;
FILE_DESCRIPTION (( 'STEP AP203' ),
    '1' );
FILE_NAME ('TTN047630-E0W.STEP',
    '2019-05-30T15:02:53',
    ( '' ),
    ( '' ),
    'SwSTEP 2.0',
    'SolidWorks 2018',
    '' );
FILE_SCHEMA (( 'CONFIG_CONTROL_DESIGN' ));
ENDSEC;

DATA;
#1 = ADVANCED_FACE ( 'NONE', ( #27 ), #82, .F. ) ;
#2 = DIRECTION ( 'NONE',  ( -0.0000000000000000000, 3.061515884555943146E-16, -1.000000000000000000 ) ) ;
#3 = CARTESIAN_POINT ( 'NONE',  ( 0.0000000000000000000, 12.69999999999999929, 1.088063254377561684 ) ) ;
#4 = APPROVAL_DATE_TIME ( #128, #90 ) ;
#5 = EDGE_CURVE ( 'NONE', #186, #248, #170, .T. ) ;
#6 = ADVANCED_FACE ( 'NONE', ( #250 ), #49, .T. ) ;
#7 = DIRECTION ( 'NONE',  ( 1.000000000000000000, 0.0000000000000000000, -0.0000000000000000000 ) ) ;
#8 = CC_DESIGN_PERSON_AND_ORGANIZATION_ASSIGNMENT ( #118, #299, ( #219 ) ) ;
#9 = CARTESIAN_POINT ( 'NONE',  ( 0.0000000000000000000, 1.836909530733565148E-16, -1.288063254377568745 ) ) ;
#10 = LINE ( 'NONE', #130, #158 ) ;
#11 = CALENDAR_DATE ( 2019, 30, 5 ) ;
#12 = DIRECTION ( 'NONE',  ( 0.0000000000000000000, -0.7071067811865598962, 0.7071067811865351382 ) ) ;
#13 = VERTEX_POINT ( 'NONE', #52 ) ;
#14 = DIRECTION ( 'NONE',  ( 0.0000000000000000000, 1.000000000000000000, 3.061515884555943146E-16 ) ) ;
#15 = DATE_AND_TIME ( #132, #88 ) ;
#16 = PLANE ( 'NONE',  #104 ) ;
#17 = DIRECTION ( 'NONE',  ( 1.000000000000000000, 0.0000000000000000000, 0.0000000000000000000 ) ) ;
#18 = APPROVAL_ROLE ( '' ) ;
#19 = VECTOR ( 'NONE', #12, 1000.000000000000114 ) ;
#20 = ORIENTED_EDGE ( 'NONE', *, *, #243, .F. ) ;
#21 = CC_DESIGN_APPROVAL ( #291, ( #219 ) ) ;
#22 = UNCERTAINTY_MEASURE_WITH_UNIT (LENGTH_MEASURE( 1.000000000000000082E-05 ), #114, 'distance_accuracy_value', 'NONE');
#23 = EDGE_CURVE ( 'NONE', #13, #57, #134, .T. ) ;
#24 = LINE ( 'NONE', #236, #71 ) ;
#25 = CC_DESIGN_PERSON_AND_ORGANIZATION_ASSIGNMENT ( #30, #268, ( #156 ) ) ;
#26 = EDGE_CURVE ( 'NONE', #204, #229, #96, .T. ) ;
#27 = FACE_OUTER_BOUND ( 'NONE', #289, .T. ) ;
#28 = EDGE_LOOP ( 'NONE', ( #62, #283, #210, #196 ) ) ;
#29 = CARTESIAN_POINT ( 'NONE',  ( 0.0000000000000000000, -1.742198475328943389E-14, 140.9779367456224293 ) ) ;
#30 = PERSON_AND_ORGANIZATION ( #48, #218 ) ;
#31 = CYLINDRICAL_SURFACE ( 'NONE', #222, 12.69999999999999929 ) ;
#32 = CARTESIAN_POINT ( 'NONE',  ( 0.0000000000000000000, 2.534979592197039093E-14, 1.270085184160562930 ) ) ;
#33 = AXIS2_PLACEMENT_3D ( 'NONE', #165, #287, #36 ) ;
#34 = DIRECTION ( 'NONE',  ( 0.0000000000000000000, 1.000000000000000000, 3.073328992872296367E-16 ) ) ;
#35 = ADVANCED_FACE ( 'NONE', ( #190 ), #31, .T. ) ;
#36 = DIRECTION ( 'NONE',  ( 0.0000000000000000000, -1.000000000000000000, -3.073328992872296367E-16 ) ) ;
#37 = CARTESIAN_POINT ( 'NONE',  ( 0.0000000000000000000, 12.69999999999999929, -1.088063254377578337 ) ) ;
#38 = VERTEX_POINT ( 'NONE', #230 ) ;
#39 = DIRECTION ( 'NONE',  ( -0.0000000000000000000, 3.061515884555935257E-16, -1.000000000000000000 ) ) ;
#40 = ORIENTED_EDGE ( 'NONE', *, *, #300, .T. ) ;
#41 = DIRECTION ( 'NONE',  ( -0.0000000000000000000, 3.061515884555943146E-16, -1.000000000000000000 ) ) ;
#42 = APPLICATION_PROTOCOL_DEFINITION ( 'international standard', 'config_control_design', 1994, #66 ) ;
#43 = EDGE_CURVE ( 'NONE', #83, #186, #220, .T. ) ;
#44 = ORIENTED_EDGE ( 'NONE', *, *, #172, .F. ) ;
#45 = AXIS2_PLACEMENT_3D ( 'NONE', #59, #39, #129 ) ;
#46 = VERTEX_POINT ( 'NONE', #3 ) ;
#47 = AXIS2_PLACEMENT_3D ( 'NONE', #180, #203, #141 ) ;
#48 = PERSON ( 'UNSPECIFIED', 'UNSPECIFIED', 'UNSPECIFIED', ('UNSPECIFIED'), ('UNSPECIFIED'), ('UNSPECIFIED') ) ;
#49 = CONICAL_SURFACE ( 'NONE', #47, 12.50000000000000355, 0.7853981633974653764 ) ;
#50 = EDGE_LOOP ( 'NONE', ( #91, #79, #139, #275 ) ) ;
#51 = DIRECTION ( 'NONE',  ( 0.0000000000000000000, -1.000000000000000000, -3.122332725382669026E-16 ) ) ;
#52 = CARTESIAN_POINT ( 'NONE',  ( 1.543054966925664878E-15, 12.50000000000000355, -1.288063254377566746 ) ) ;
#53 = DATE_AND_TIME ( #135, #215 ) ;
#54 = DIRECTION ( 'NONE',  ( 0.0000000000000000000, 1.000000000000000000, 3.073328992872296367E-16 ) ) ;
#55 = FACE_OUTER_BOUND ( 'NONE', #274, .T. ) ;
#56 = DIRECTION ( 'NONE',  ( 0.0000000000000000000, 1.000000000000000000, 3.073328992872296367E-16 ) ) ;
#57 = VERTEX_POINT ( 'NONE', #124 ) ;
#58 = ORIENTED_EDGE ( 'NONE', *, *, #73, .F. ) ;
#59 = CARTESIAN_POINT ( 'NONE',  ( 0.0000000000000000000, -5.437639519534711132E-16, 1.088063254377557909 ) ) ;
#60 = CARTESIAN_POINT ( 'NONE',  ( 1.555301434917138433E-15, -12.69999999999999929, 1.088063254377553912 ) ) ;
#61 = AXIS2_PLACEMENT_3D ( 'NONE', #256, #125, #284 ) ;
#62 = ORIENTED_EDGE ( 'NONE', *, *, #228, .T. ) ;
#63 = APPROVAL_STATUS ( 'not_yet_approved' ) ;
#64 = APPLICATION_CONTEXT ( 'configuration controlled 3d designs of mechanical parts and assemblies' ) ;
#65 = AXIS2_PLACEMENT_3D ( 'NONE', #103, #239, #133 ) ;
#66 = APPLICATION_CONTEXT ( 'configuration controlled 3d designs of mechanical parts and assemblies' ) ;
#67 = LOCAL_TIME ( 11, 2, 53.00000000000000000, #195 ) ;
#68 = EDGE_LOOP ( 'NONE', ( #227, #112, #241 ) ) ;
#69 = MECHANICAL_CONTEXT ( 'NONE', #66, 'mechanical' ) ;
#70 = CC_DESIGN_PERSON_AND_ORGANIZATION_ASSIGNMENT ( #120, #192, ( #219 ) ) ;
#71 = VECTOR ( 'NONE', #41, 1000.000000000000000 ) ;
#72 = LOCAL_TIME ( 11, 2, 53.00000000000000000, #100 ) ;
#73 = EDGE_CURVE ( 'NONE', #186, #83, #162, .T. ) ;
#74 = FACE_OUTER_BOUND ( 'NONE', #298, .T. ) ;
#75 = ORIENTED_EDGE ( 'NONE', *, *, #160, .F. ) ;
#76 = DIRECTION ( 'NONE',  ( 0.0000000000000000000, 1.000000000000000000, 3.957562861367532226E-16 ) ) ;
#77 = LOCAL_TIME ( 11, 2, 53.00000000000000000, #253 ) ;
#78 = CARTESIAN_POINT ( 'NONE',  ( 0.0000000000000000000, -1.742198475328943389E-14, 140.9779367456224293 ) ) ;
#79 = ORIENTED_EDGE ( 'NONE', *, *, #184, .T. ) ;
#80 = CARTESIAN_POINT ( 'NONE',  ( 0.0000000000000000000, 1.836909530733565148E-16, -1.288063254377568745 ) ) ;
#81 = CARTESIAN_POINT ( 'NONE',  ( 0.0000000000000000000, -1.742198475328943389E-14, 140.9779367456224293 ) ) ;
#82 = SPHERICAL_SURFACE ( 'NONE', #201, 140.2659999999999911 ) ;
#83 = VERTEX_POINT ( 'NONE', #181 ) ;
#84 = DIRECTION ( 'NONE',  ( -1.224646799147353207E-16, 1.000000000000000000, 0.0000000000000000000 ) ) ;
#85 = CARTESIAN_POINT ( 'NONE',  ( 0.0000000000000000000, 0.0000000000000000000, 0.0000000000000000000 ) ) ;
#86 = APPLICATION_PROTOCOL_DEFINITION ( 'international standard', 'config_control_design', 1994, #64 ) ;
#87 = LINE ( 'NONE', #152, #19 ) ;
#88 = LOCAL_TIME ( 11, 2, 53.00000000000000000, #301 ) ;
#89 =( NAMED_UNIT ( * ) PLANE_ANGLE_UNIT ( ) SI_UNIT ( $, .RADIAN. ) );
#90 = APPROVAL ( #245, 'UNSPECIFIED' ) ;
#91 = ORIENTED_EDGE ( 'NONE', *, *, #43, .F. ) ;
#92 = SECURITY_CLASSIFICATION_LEVEL ( 'unclassified' ) ;
#93 = PRODUCT_DEFINITION ( 'UNKNOWN', '', #219, #126 ) ;
#94 = VECTOR ( 'NONE', #106, 1000.000000000000000 ) ;
#95 = PERSON_AND_ORGANIZATION ( #48, #218 ) ;
#96 = CIRCLE ( 'NONE', #122, 12.69999999999999929 ) ;
#97 = CC_DESIGN_PERSON_AND_ORGANIZATION_ASSIGNMENT ( #205, #157, ( #296 ) ) ;
#98 = CONICAL_SURFACE ( 'NONE', #276, 12.69999999999999929, 0.8307313751134488555 ) ;
#99 = CC_DESIGN_PERSON_AND_ORGANIZATION_ASSIGNMENT ( #95, #294, ( #93 ) ) ;
#100 = COORDINATED_UNIVERSAL_TIME_OFFSET ( 5, 0, .BEHIND. ) ;
#101 = PRODUCT_DEFINITION_SHAPE ( 'NONE', 'NONE',  #93 ) ;
#102 = ADVANCED_FACE ( 'NONE', ( #153 ), #278, .T. ) ;
#103 = CARTESIAN_POINT ( 'NONE',  ( 0.0000000000000000000, 1.836909530733571064E-16, -1.288063254377570743 ) ) ;
#104 = AXIS2_PLACEMENT_3D ( 'NONE', #290, #149, #14 ) ;
#105 = DATE_AND_TIME ( #235, #67 ) ;
#106 = DIRECTION ( 'NONE',  ( -0.0000000000000000000, 3.061515884555943146E-16, -1.000000000000000000 ) ) ;
#107 = ORIENTED_EDGE ( 'NONE', *, *, #172, .T. ) ;
#108 = ADVANCED_FACE ( 'NONE', ( #271 ), #258, .F. ) ;
#109 = DIRECTION ( 'NONE',  ( 0.0000000000000000000, 0.7384247610382823623, -0.6743358749803807228 ) ) ;
#110 = EDGE_CURVE ( 'NONE', #46, #229, #24, .T. ) ;
#111 = CC_DESIGN_DATE_AND_TIME_ASSIGNMENT ( #53, #265, ( #296 ) ) ;
#112 = ORIENTED_EDGE ( 'NONE', *, *, #243, .T. ) ;
#113 = ORIENTED_EDGE ( 'NONE', *, *, #26, .F. ) ;
#114 =( LENGTH_UNIT ( ) NAMED_UNIT ( * ) SI_UNIT ( .MILLI., .METRE. ) );
#115 = FACE_OUTER_BOUND ( 'NONE', #28, .T. ) ;
#116 = APPROVAL_PERSON_ORGANIZATION ( #273, #136, #217 ) ;
#117 = ORIENTED_EDGE ( 'NONE', *, *, #167, .F. ) ;
#118 = PERSON_AND_ORGANIZATION ( #48, #218 ) ;
#119 = VECTOR ( 'NONE', #109, 999.9999999999998863 ) ;
#120 = PERSON_AND_ORGANIZATION ( #48, #218 ) ;
#121 = DIRECTION ( 'NONE',  ( 0.0000000000000000000, -3.061515884555943146E-16, 1.000000000000000000 ) ) ;
#122 = AXIS2_PLACEMENT_3D ( 'NONE', #255, #121, #54 ) ;
#123 = ORIENTED_EDGE ( 'NONE', *, *, #43, .T. ) ;
#124 = CARTESIAN_POINT ( 'NONE',  ( 0.0000000000000000000, -12.50000000000000355, -1.288063254377574740 ) ) ;
#125 = DIRECTION ( 'NONE',  ( -0.0000000000000000000, 3.061515884555943146E-16, -1.000000000000000000 ) ) ;
#126 = DESIGN_CONTEXT ( 'detailed design', #64, 'design' ) ;
#127 = DIRECTION ( 'NONE',  ( 0.0000000000000000000, 1.000000000000000000, 3.073328992872296367E-16 ) ) ;
#128 = DATE_AND_TIME ( #11, #72 ) ;
#129 = DIRECTION ( 'NONE',  ( 0.0000000000000000000, -1.000000000000000000, -3.073328992872296367E-16 ) ) ;
#130 = CARTESIAN_POINT ( 'NONE',  ( 1.530808498934191719E-15, 12.50000000000000355, -1.288063254377566746 ) ) ;
#131 = DIRECTION ( 'NONE',  ( 0.0000000000000000000, -3.061515884555943146E-16, 1.000000000000000000 ) ) ;
#132 = CALENDAR_DATE ( 2019, 30, 5 ) ;
#133 = DIRECTION ( 'NONE',  ( 0.0000000000000000000, 1.000000000000000000, 3.122502256758251784E-16 ) ) ;
#134 = CIRCLE ( 'NONE', #61, 12.50000000000000355 ) ;
#135 = CALENDAR_DATE ( 2019, 30, 5 ) ;
#136 = APPROVAL ( #246, 'UNSPECIFIED' ) ;
#137 = AXIS2_PLACEMENT_3D ( 'NONE', #32, #143, #282 ) ;
#138 = ADVANCED_FACE ( 'NONE', ( #194 ), #98, .T. ) ;
#139 = ORIENTED_EDGE ( 'NONE', *, *, #228, .F. ) ;
#140 = EDGE_CURVE ( 'NONE', #13, #229, #10, .T. ) ;
#141 = DIRECTION ( 'NONE',  ( 0.0000000000000000000, -1.000000000000000000, -3.122502256758251784E-16 ) ) ;
#142 = DIRECTION ( 'NONE',  ( 0.0000000000000000000, 0.0000000000000000000, 1.000000000000000000 ) ) ;
#143 = DIRECTION ( 'NONE',  ( 0.0000000000000000000, -3.061515884555935257E-16, 1.000000000000000000 ) ) ;
#144 = ORIENTED_EDGE ( 'NONE', *, *, #249, .F. ) ;
#145 = ADVANCED_FACE ( 'NONE', ( #74 ), #16, .T. ) ;
#146 = ORIENTED_EDGE ( 'NONE', *, *, #5, .T. ) ;
#147 = CARTESIAN_POINT ( 'NONE',  ( 0.0000000000000000000, 1.836909530733571311E-16, -1.288063254377570743 ) ) ;
#148 = DIRECTION ( 'NONE',  ( 8.659560562355078304E-17, 0.7071067811865594521, 0.7071067811865356934 ) ) ;
#149 = DIRECTION ( 'NONE',  ( -0.0000000000000000000, 3.061515884555943146E-16, -1.000000000000000000 ) ) ;
#150 = LINE ( 'NONE', #209, #94 ) ;
#151 = APPROVAL_DATE_TIME ( #198, #136 ) ;
#152 = CARTESIAN_POINT ( 'NONE',  ( 0.0000000000000000000, -12.50000000000000355, -1.288063254377574740 ) ) ;
#153 = FACE_OUTER_BOUND ( 'NONE', #50, .T. ) ;
#154 = CLOSED_SHELL ( 'NONE', ( #102, #233, #108, #254, #145, #35, #1, #6, #138 ) ) ;
#155 = AXIS2_PLACEMENT_3D ( 'NONE', #78, #252, #76 ) ;
#156 = PRODUCT ( 'TTN047630-E0W', 'TTN047630-E0W', '', ( #69 ) ) ;
#157 = PERSON_AND_ORGANIZATION_ROLE ( 'classification_officer' ) ;
#158 = VECTOR ( 'NONE', #148, 1000.000000000000114 ) ;
#159 = EDGE_LOOP ( 'NONE', ( #75, #107, #279, #176 ) ) ;
#160 = EDGE_CURVE ( 'NONE', #38, #204, #150, .T. ) ;
#161 = DIRECTION ( 'NONE',  ( -1.000000000000000000, 0.0000000000000000000, 0.0000000000000000000 ) ) ;
#162 = CIRCLE ( 'NONE', #240, 12.50067870479579923 ) ;
#163 = DIRECTION ( 'NONE',  ( -0.0000000000000000000, 3.061515884555935257E-16, -1.000000000000000000 ) ) ;
#164 = DIRECTION ( 'NONE',  ( 0.0000000000000000000, 1.000000000000000000, 3.073328992872296367E-16 ) ) ;
#165 = CARTESIAN_POINT ( 'NONE',  ( 0.0000000000000000000, -5.437639519534711132E-16, 1.088063254377557909 ) ) ;
#166 = DIRECTION ( 'NONE',  ( -0.0000000000000000000, 3.061515884555943146E-16, -1.000000000000000000 ) ) ;
#167 = EDGE_CURVE ( 'NONE', #57, #204, #87, .T. ) ;
#168 = ORIENTED_EDGE ( 'NONE', *, *, #167, .T. ) ;
#169 = CARTESIAN_POINT ( 'NONE',  ( 0.0000000000000000000, 12.69999999999999929, 1.088063254377561684 ) ) ;
#170 = CIRCLE ( 'NONE', #263, 140.2659999999999911 ) ;
#171 = EDGE_LOOP ( 'NONE', ( #237, #58, #40, #44 ) ) ;
#172 = EDGE_CURVE ( 'NONE', #38, #46, #174, .T. ) ;
#173 =( NAMED_UNIT ( * ) SI_UNIT ( $, .STERADIAN. ) SOLID_ANGLE_UNIT ( ) );
#174 = CIRCLE ( 'NONE', #45, 12.69999999999999929 ) ;
#175 = CONICAL_SURFACE ( 'NONE', #191, 12.50000000000000355, 0.7853981633974653764 ) ;
#176 = ORIENTED_EDGE ( 'NONE', *, *, #295, .T. ) ;
#177 = EDGE_LOOP ( 'NONE', ( #216, #144, #168, #260 ) ) ;
#178 = CC_DESIGN_SECURITY_CLASSIFICATION ( #296, ( #219 ) ) ;
#179 = CARTESIAN_POINT ( 'NONE',  ( 0.0000000000000000000, 2.534979592197039093E-14, 1.270085184160562930 ) ) ;
#180 = CARTESIAN_POINT ( 'NONE',  ( 0.0000000000000000000, 1.836909530733571311E-16, -1.288063254377570743 ) ) ;
#181 = CARTESIAN_POINT ( 'NONE',  ( 1.530891616299772605E-15, -12.50067870479583121, 1.270085184160555603 ) ) ;
#182 = ORIENTED_EDGE ( 'NONE', *, *, #23, .T. ) ;
#183 = CARTESIAN_POINT ( 'NONE',  ( 0.0000000000000000000, -5.437639519534689438E-16, 1.088063254377557909 ) ) ;
#184 = EDGE_CURVE ( 'NONE', #83, #38, #292, .T. ) ;
#185 = COORDINATED_UNIVERSAL_TIME_OFFSET ( 5, 0, .BEHIND. ) ;
#186 = VERTEX_POINT ( 'NONE', #188 ) ;
#187 = CARTESIAN_POINT ( 'NONE',  ( 1.555301434917138433E-15, -12.69999999999999929, -1.088063254377586109 ) ) ;
#188 = CARTESIAN_POINT ( 'NONE',  ( 0.0000000000000000000, 12.50067870479588272, 1.270085184160559377 ) ) ;
#189 = DIRECTION ( 'NONE',  ( 0.0000000000000000000, 0.0000000000000000000, 1.000000000000000000 ) ) ;
#190 = FACE_OUTER_BOUND ( 'NONE', #159, .T. ) ;
#191 = AXIS2_PLACEMENT_3D ( 'NONE', #147, #131, #208 ) ;
#192 = PERSON_AND_ORGANIZATION_ROLE ( 'creator' ) ;
#193 = CYLINDRICAL_SURFACE ( 'NONE', #272, 12.69999999999999929 ) ;
#194 = FACE_OUTER_BOUND ( 'NONE', #171, .T. ) ;
#195 = COORDINATED_UNIVERSAL_TIME_OFFSET ( 5, 0, .BEHIND. ) ;
#196 = ORIENTED_EDGE ( 'NONE', *, *, #110, .F. ) ;
#197 = APPROVAL_PERSON_ORGANIZATION ( #288, #291, #266 ) ;
#198 = DATE_AND_TIME ( #200, #77 ) ;
#199 = CC_DESIGN_DATE_AND_TIME_ASSIGNMENT ( #105, #269, ( #93 ) ) ;
#200 = CALENDAR_DATE ( 2019, 30, 5 ) ;
#201 = AXIS2_PLACEMENT_3D ( 'NONE', #29, #7, #259 ) ;
#202 = CARTESIAN_POINT ( 'NONE',  ( 0.0000000000000000000, -1.742198475328943389E-14, 140.9779367456224293 ) ) ;
#203 = DIRECTION ( 'NONE',  ( 0.0000000000000000000, -3.061515884555943146E-16, 1.000000000000000000 ) ) ;
#204 = VERTEX_POINT ( 'NONE', #187 ) ;
#205 = PERSON_AND_ORGANIZATION ( #48, #218 ) ;
#206 = DIRECTION ( 'NONE',  ( -0.0000000000000000000, 3.061515884555935257E-16, -1.000000000000000000 ) ) ;
#207 = AXIS2_PLACEMENT_3D ( 'NONE', #262, #261, #127 ) ;
#208 = DIRECTION ( 'NONE',  ( 0.0000000000000000000, -1.000000000000000000, -3.122502256758251784E-16 ) ) ;
#209 = CARTESIAN_POINT ( 'NONE',  ( 1.555301434917138433E-15, -12.69999999999999929, -1.288063254377572742 ) ) ;
#210 = ORIENTED_EDGE ( 'NONE', *, *, #26, .T. ) ;
#211 = DIRECTION ( 'NONE',  ( 9.043095200166814584E-17, -0.7384247610382819182, -0.6743358749803810559 ) ) ;
#212 = DIRECTION ( 'NONE',  ( 1.000000000000000000, 1.224646799147353207E-16, 3.749275628560213616E-32 ) ) ;
#213 = CARTESIAN_POINT ( 'NONE',  ( 0.0000000000000000000, 3.410948934948309231E-14, 0.7119367456224212631 ) ) ;
#214 = CIRCLE ( 'NONE', #65, 12.50000000000000355 ) ;
#215 = LOCAL_TIME ( 11, 2, 53.00000000000000000, #185 ) ;
#216 = ORIENTED_EDGE ( 'NONE', *, *, #140, .F. ) ;
#217 = APPROVAL_ROLE ( '' ) ;
#218 = ORGANIZATION ( 'UNSPECIFIED', 'UNSPECIFIED', '' ) ;
#219 = PRODUCT_DEFINITION_FORMATION_WITH_SPECIFIED_SOURCE ( 'ANY', '', #156, .NOT_KNOWN. ) ;
#220 = CIRCLE ( 'NONE', #137, 12.50067870479579923 ) ;
#221 = APPROVAL_PERSON_ORGANIZATION ( #293, #90, #18 ) ;
#222 = AXIS2_PLACEMENT_3D ( 'NONE', #9, #2, #164 ) ;
#223 = CC_DESIGN_APPROVAL ( #90, ( #296 ) ) ;
#224 =( GEOMETRIC_REPRESENTATION_CONTEXT ( 3 ) GLOBAL_UNCERTAINTY_ASSIGNED_CONTEXT ( ( #22 ) ) GLOBAL_UNIT_ASSIGNED_CONTEXT ( ( #114, #89, #173 ) ) REPRESENTATION_CONTEXT ( 'NONE', 'WORKASPACE' ) );
#225 = SHAPE_DEFINITION_REPRESENTATION ( #101, #285 ) ;
#226 = CIRCLE ( 'NONE', #207, 12.69999999999999929 ) ;
#227 = ORIENTED_EDGE ( 'NONE', *, *, #73, .T. ) ;
#228 = EDGE_CURVE ( 'NONE', #46, #38, #270, .T. ) ;
#229 = VERTEX_POINT ( 'NONE', #37 ) ;
#230 = CARTESIAN_POINT ( 'NONE',  ( 1.555301434917138433E-15, -12.69999999999999929, 1.088063254377553912 ) ) ;
#231 = APPROVAL_DATE_TIME ( #15, #291 ) ;
#232 = ORIENTED_EDGE ( 'NONE', *, *, #23, .F. ) ;
#233 = ADVANCED_FACE ( 'NONE', ( #55 ), #175, .T. ) ;
#234 = DIRECTION ( 'NONE',  ( 0.0000000000000000000, -3.061515884555935257E-16, 1.000000000000000000 ) ) ;
#235 = CALENDAR_DATE ( 2019, 30, 5 ) ;
#236 = CARTESIAN_POINT ( 'NONE',  ( 0.0000000000000000000, 12.69999999999999929, -1.288063254377564970 ) ) ;
#237 = ORIENTED_EDGE ( 'NONE', *, *, #184, .F. ) ;
#238 = DIRECTION ( 'NONE',  ( 0.0000000000000000000, 1.000000000000000000, 3.073328992872296367E-16 ) ) ;
#239 = DIRECTION ( 'NONE',  ( -0.0000000000000000000, 3.061515884555943146E-16, -1.000000000000000000 ) ) ;
#240 = AXIS2_PLACEMENT_3D ( 'NONE', #179, #234, #51 ) ;
#241 = ORIENTED_EDGE ( 'NONE', *, *, #5, .F. ) ;
#242 = ORIENTED_EDGE ( 'NONE', *, *, #249, .T. ) ;
#243 = EDGE_CURVE ( 'NONE', #83, #248, #281, .T. ) ;
#244 = MANIFOLD_SOLID_BREP ( 'TTN047631-1-solid1', #154 ) ;
#245 = APPROVAL_STATUS ( 'not_yet_approved' ) ;
#246 = APPROVAL_STATUS ( 'not_yet_approved' ) ;
#247 = AXIS2_PLACEMENT_3D ( 'NONE', #85, #189, #17 ) ;
#248 = VERTEX_POINT ( 'NONE', #213 ) ;
#249 = EDGE_CURVE ( 'NONE', #57, #13, #214, .T. ) ;
#250 = FACE_OUTER_BOUND ( 'NONE', #177, .T. ) ;
#251 = CC_DESIGN_APPROVAL ( #136, ( #93 ) ) ;
#252 = DIRECTION ( 'NONE',  ( 1.000000000000000000, 0.0000000000000000000, -0.0000000000000000000 ) ) ;
#253 = COORDINATED_UNIVERSAL_TIME_OFFSET ( 5, 0, .BEHIND. ) ;
#254 = ADVANCED_FACE ( 'NONE', ( #115 ), #193, .T. ) ;
#255 = CARTESIAN_POINT ( 'NONE',  ( 0.0000000000000000000, 1.224606353822417687E-16, -1.088063254377582112 ) ) ;
#256 = CARTESIAN_POINT ( 'NONE',  ( 0.0000000000000000000, 1.836909530733571064E-16, -1.288063254377570743 ) ) ;
#257 = AXIS2_PLACEMENT_3D ( 'NONE', #280, #163, #34 ) ;
#258 = SPHERICAL_SURFACE ( 'NONE', #155, 140.2659999999999911 ) ;
#259 = DIRECTION ( 'NONE',  ( 0.0000000000000000000, 1.000000000000000000, 3.957562861367532226E-16 ) ) ;
#260 = ORIENTED_EDGE ( 'NONE', *, *, #295, .F. ) ;
#261 = DIRECTION ( 'NONE',  ( 0.0000000000000000000, -3.061515884555943146E-16, 1.000000000000000000 ) ) ;
#262 = CARTESIAN_POINT ( 'NONE',  ( 0.0000000000000000000, 1.224606353822417687E-16, -1.088063254377582112 ) ) ;
#263 = AXIS2_PLACEMENT_3D ( 'NONE', #202, #161, #142 ) ;
#264 = ORIENTED_EDGE ( 'NONE', *, *, #140, .T. ) ;
#265 = DATE_TIME_ROLE ( 'classification_date' ) ;
#266 = APPROVAL_ROLE ( '' ) ;
#267 = AXIS2_PLACEMENT_3D ( 'NONE', #81, #212, #84 ) ;
#268 = PERSON_AND_ORGANIZATION_ROLE ( 'design_owner' ) ;
#269 = DATE_TIME_ROLE ( 'creation_date' ) ;
#270 = CIRCLE ( 'NONE', #33, 12.69999999999999929 ) ;
#271 = FACE_OUTER_BOUND ( 'NONE', #68, .T. ) ;
#272 = AXIS2_PLACEMENT_3D ( 'NONE', #80, #166, #56 ) ;
#273 = PERSON_AND_ORGANIZATION ( #48, #218 ) ;
#274 = EDGE_LOOP ( 'NONE', ( #232, #264, #113, #117 ) ) ;
#275 = ORIENTED_EDGE ( 'NONE', *, *, #300, .F. ) ;
#276 = AXIS2_PLACEMENT_3D ( 'NONE', #183, #206, #238 ) ;
#277 = PRODUCT_RELATED_PRODUCT_CATEGORY ( 'detail', '', ( #156 ) ) ;
#278 = CONICAL_SURFACE ( 'NONE', #257, 12.69999999999999929, 0.8307313751134488555 ) ;
#279 = ORIENTED_EDGE ( 'NONE', *, *, #110, .T. ) ;
#280 = CARTESIAN_POINT ( 'NONE',  ( 0.0000000000000000000, -5.437639519534689438E-16, 1.088063254377557909 ) ) ;
#281 = CIRCLE ( 'NONE', #267, 140.2659999999999911 ) ;
#282 = DIRECTION ( 'NONE',  ( 0.0000000000000000000, -1.000000000000000000, -3.122332725382669026E-16 ) ) ;
#283 = ORIENTED_EDGE ( 'NONE', *, *, #160, .T. ) ;
#284 = DIRECTION ( 'NONE',  ( 0.0000000000000000000, 1.000000000000000000, 3.122502256758251784E-16 ) ) ;
#285 = ADVANCED_BREP_SHAPE_REPRESENTATION ( 'TTN047630-E0W', ( #244, #247 ), #224 ) ;
#286 = LINE ( 'NONE', #169, #119 ) ;
#287 = DIRECTION ( 'NONE',  ( -0.0000000000000000000, 3.061515884555935257E-16, -1.000000000000000000 ) ) ;
#288 = PERSON_AND_ORGANIZATION ( #48, #218 ) ;
#289 = EDGE_LOOP ( 'NONE', ( #20, #123, #146 ) ) ;
#290 = CARTESIAN_POINT ( 'NONE',  ( 0.0000000000000000000, 1.836909530733571311E-16, -1.288063254377570743 ) ) ;
#291 = APPROVAL ( #63, 'UNSPECIFIED' ) ;
#292 = LINE ( 'NONE', #60, #297 ) ;
#293 = PERSON_AND_ORGANIZATION ( #48, #218 ) ;
#294 = PERSON_AND_ORGANIZATION_ROLE ( 'creator' ) ;
#295 = EDGE_CURVE ( 'NONE', #229, #204, #226, .T. ) ;
#296 = SECURITY_CLASSIFICATION ( '', '', #92 ) ;
#297 = VECTOR ( 'NONE', #211, 1000.000000000000114 ) ;
#298 = EDGE_LOOP ( 'NONE', ( #242, #182 ) ) ;
#299 = PERSON_AND_ORGANIZATION_ROLE ( 'design_supplier' ) ;
#300 = EDGE_CURVE ( 'NONE', #186, #46, #286, .T. ) ;
#301 = COORDINATED_UNIVERSAL_TIME_OFFSET ( 5, 0, .BEHIND. ) ;
ENDSEC;
END-ISO-10303-21;
