ISO-10303-21;
HEADER;
FILE_DESCRIPTION (( 'STEP AP203' ),
    '1' );
FILE_NAME ('Web Model 14962_14975.step',
    '2020-07-27T18:39:02',
    ( '' ),
    ( '' ),
    'SwSTEP 2.0',
    'SolidWorks 2018',
    '' );
FILE_SCHEMA (( 'CONFIG_CONTROL_DESIGN' ));
ENDSEC;

DATA;
#1 = CIRCLE ( 'NONE', #84, 12.50000000000000000 ) ;
#2 = APPLICATION_CONTEXT ( 'configuration controlled 3d designs of mechanical parts and assemblies' ) ;
#3 = CARTESIAN_POINT ( 'NONE',  ( -1.000000000000000000, 1.530808498934191521E-15, -12.50000000000000000 ) ) ;
#4 = COORDINATED_UNIVERSAL_TIME_OFFSET ( 5, 0, .BEHIND. ) ;
#5 = CC_DESIGN_SECURITY_CLASSIFICATION ( #104, ( #13 ) ) ;
#6 = CARTESIAN_POINT ( 'NONE',  ( 1.000000000000000000, 0.0000000000000000000, 0.0000000000000000000 ) ) ;
#7 = CARTESIAN_POINT ( 'NONE',  ( 1.000000000000000000, 0.0000000000000000000, 0.0000000000000000000 ) ) ;
#8 = LINE ( 'NONE', #64, #127 ) ;
#9 = COORDINATED_UNIVERSAL_TIME_OFFSET ( 5, 0, .BEHIND. ) ;
#10 = APPROVAL_STATUS ( 'not_yet_approved' ) ;
#11 = APPROVAL_STATUS ( 'not_yet_approved' ) ;
#12 = ORIENTED_EDGE ( 'NONE', *, *, #73, .F. ) ;
#13 = PRODUCT_DEFINITION_FORMATION_WITH_SPECIFIED_SOURCE ( 'ANY', '', #19, .NOT_KNOWN. ) ;
#14 = PERSON_AND_ORGANIZATION ( #67, #68 ) ;
#15 = ORIENTED_EDGE ( 'NONE', *, *, #137, .F. ) ;
#16 = DIRECTION ( 'NONE',  ( 1.000000000000000000, 0.0000000000000000000, 0.0000000000000000000 ) ) ;
#17 = LOCAL_TIME ( 14, 39, 2.000000000000000000, #131 ) ;
#18 = CC_DESIGN_PERSON_AND_ORGANIZATION_ASSIGNMENT ( #86, #56, ( #19 ) ) ;
#19 = PRODUCT ( 'Web Model 14962_14975', 'Web Model 14962_14975', '', ( #175 ) ) ;
#20 = PLANE ( 'NONE',  #157 ) ;
#21 = EDGE_LOOP ( 'NONE', ( #139, #29 ) ) ;
#22 = DIRECTION ( 'NONE',  ( 1.000000000000000000, 0.0000000000000000000, 0.0000000000000000000 ) ) ;
#23 = CC_DESIGN_APPROVAL ( #44, ( #96 ) ) ;
#24 = APPROVAL_DATE_TIME ( #74, #44 ) ;
#25 = PERSON_AND_ORGANIZATION_ROLE ( 'creator' ) ;
#26 = LOCAL_TIME ( 14, 39, 2.000000000000000000, #71 ) ;
#27 = PERSON_AND_ORGANIZATION_ROLE ( 'creator' ) ;
#28 = AXIS2_PLACEMENT_3D ( 'NONE', #119, #36, #132 ) ;
#29 = ORIENTED_EDGE ( 'NONE', *, *, #137, .T. ) ;
#30 = ORIENTED_EDGE ( 'NONE', *, *, #130, .T. ) ;
#31 = CARTESIAN_POINT ( 'NONE',  ( 0.0000000000000000000, 0.0000000000000000000, 0.0000000000000000000 ) ) ;
#32 = ADVANCED_FACE ( 'NONE', ( #80 ), #45, .T. ) ;
#33 = DIRECTION ( 'NONE',  ( 1.000000000000000000, 0.0000000000000000000, 0.0000000000000000000 ) ) ;
#34 = FACE_OUTER_BOUND ( 'NONE', #153, .T. ) ;
#35 = DIRECTION ( 'NONE',  ( 0.0000000000000000000, 0.0000000000000000000, 1.000000000000000000 ) ) ;
#36 = DIRECTION ( 'NONE',  ( 1.000000000000000000, 0.0000000000000000000, 0.0000000000000000000 ) ) ;
#37 = CIRCLE ( 'NONE', #170, 12.50000000000000000 ) ;
#38 = DATE_TIME_ROLE ( 'classification_date' ) ;
#39 = PERSON_AND_ORGANIZATION ( #67, #68 ) ;
#40 = CC_DESIGN_APPROVAL ( #70, ( #13 ) ) ;
#41 = FACE_OUTER_BOUND ( 'NONE', #21, .T. ) ;
#42 = DIRECTION ( 'NONE',  ( 0.0000000000000000000, 0.0000000000000000000, -1.000000000000000000 ) ) ;
#43 =( GEOMETRIC_REPRESENTATION_CONTEXT ( 3 ) GLOBAL_UNCERTAINTY_ASSIGNED_CONTEXT ( ( #123 ) ) GLOBAL_UNIT_ASSIGNED_CONTEXT ( ( #147, #103, #110 ) ) REPRESENTATION_CONTEXT ( 'NONE', 'WORKASPACE' ) );
#44 = APPROVAL ( #10, 'UNSPECIFIED' ) ;
#45 = CYLINDRICAL_SURFACE ( 'NONE', #126, 12.50000000000000000 ) ;
#46 = AXIS2_PLACEMENT_3D ( 'NONE', #53, #112, #42 ) ;
#47 = LOCAL_TIME ( 14, 39, 2.000000000000000000, #160 ) ;
#48 = APPLICATION_PROTOCOL_DEFINITION ( 'international standard', 'config_control_design', 1994, #162 ) ;
#49 = CARTESIAN_POINT ( 'NONE',  ( 1.000000000000000000, 1.530808498934191521E-15, -12.50000000000000000 ) ) ;
#50 = DIRECTION ( 'NONE',  ( -1.000000000000000000, -0.0000000000000000000, -0.0000000000000000000 ) ) ;
#51 = DIRECTION ( 'NONE',  ( -1.000000000000000000, -0.0000000000000000000, -0.0000000000000000000 ) ) ;
#52 = DATE_AND_TIME ( #135, #26 ) ;
#53 = CARTESIAN_POINT ( 'NONE',  ( 1.000000000000000000, 0.0000000000000000000, 0.0000000000000000000 ) ) ;
#54 = CC_DESIGN_PERSON_AND_ORGANIZATION_ASSIGNMENT ( #149, #27, ( #13 ) ) ;
#55 = LINE ( 'NONE', #171, #105 ) ;
#56 = PERSON_AND_ORGANIZATION_ROLE ( 'design_owner' ) ;
#57 = PERSON_AND_ORGANIZATION_ROLE ( 'classification_officer' ) ;
#58 = CC_DESIGN_PERSON_AND_ORGANIZATION_ASSIGNMENT ( #63, #25, ( #96 ) ) ;
#59 = DATE_TIME_ROLE ( 'creation_date' ) ;
#60 = CC_DESIGN_DATE_AND_TIME_ASSIGNMENT ( #52, #59, ( #96 ) ) ;
#61 = VERTEX_POINT ( 'NONE', #140 ) ;
#62 = ORIENTED_EDGE ( 'NONE', *, *, #143, .T. ) ;
#63 = PERSON_AND_ORGANIZATION ( #67, #68 ) ;
#64 = CARTESIAN_POINT ( 'NONE',  ( 1.000000000000000000, 0.0000000000000000000, 12.50000000000000000 ) ) ;
#65 = DIRECTION ( 'NONE',  ( 1.000000000000000000, 0.0000000000000000000, 0.0000000000000000000 ) ) ;
#66 = APPROVAL ( #11, 'UNSPECIFIED' ) ;
#67 = PERSON ( 'UNSPECIFIED', 'UNSPECIFIED', 'UNSPECIFIED', ('UNSPECIFIED'), ('UNSPECIFIED'), ('UNSPECIFIED') ) ;
#68 = ORGANIZATION ( 'UNSPECIFIED', 'UNSPECIFIED', '' ) ;
#69 = DIRECTION ( 'NONE',  ( 0.0000000000000000000, 0.0000000000000000000, -1.000000000000000000 ) ) ;
#70 = APPROVAL ( #87, 'UNSPECIFIED' ) ;
#71 = COORDINATED_UNIVERSAL_TIME_OFFSET ( 5, 0, .BEHIND. ) ;
#72 = APPROVAL_ROLE ( '' ) ;
#73 = EDGE_CURVE ( 'NONE', #99, #61, #8, .T. ) ;
#74 = DATE_AND_TIME ( #94, #47 ) ;
#75 = ADVANCED_FACE ( 'NONE', ( #125 ), #20, .F. ) ;
#76 = ADVANCED_FACE ( 'NONE', ( #41 ), #98, .T. ) ;
#77 = APPROVAL_DATE_TIME ( #116, #70 ) ;
#78 = PERSON_AND_ORGANIZATION ( #67, #68 ) ;
#79 = CARTESIAN_POINT ( 'NONE',  ( -1.000000000000000000, 0.0000000000000000000, 0.0000000000000000000 ) ) ;
#80 = FACE_OUTER_BOUND ( 'NONE', #169, .T. ) ;
#81 = DIRECTION ( 'NONE',  ( 0.0000000000000000000, 0.0000000000000000000, -1.000000000000000000 ) ) ;
#82 = PERSON_AND_ORGANIZATION ( #67, #68 ) ;
#83 = DATE_AND_TIME ( #114, #142 ) ;
#84 = AXIS2_PLACEMENT_3D ( 'NONE', #107, #16, #128 ) ;
#85 = PERSON_AND_ORGANIZATION_ROLE ( 'design_supplier' ) ;
#86 = PERSON_AND_ORGANIZATION ( #67, #68 ) ;
#87 = APPROVAL_STATUS ( 'not_yet_approved' ) ;
#88 = PERSON_AND_ORGANIZATION ( #67, #68 ) ;
#89 = SECURITY_CLASSIFICATION_LEVEL ( 'unclassified' ) ;
#90 = APPROVAL_DATE_TIME ( #93, #66 ) ;
#91 = ADVANCED_BREP_SHAPE_REPRESENTATION ( 'Web Model 14962_14975', ( #159, #165 ), #43 ) ;
#92 = VERTEX_POINT ( 'NONE', #49 ) ;
#93 = DATE_AND_TIME ( #152, #163 ) ;
#94 = CALENDAR_DATE ( 2020, 27, 7 ) ;
#95 = ADVANCED_FACE ( 'NONE', ( #34 ), #102, .T. ) ;
#96 = PRODUCT_DEFINITION ( 'UNKNOWN', '', #13, #106 ) ;
#97 = CALENDAR_DATE ( 2020, 27, 7 ) ;
#98 = PLANE ( 'NONE',  #124 ) ;
#99 = VERTEX_POINT ( 'NONE', #141 ) ;
#100 = PRODUCT_RELATED_PRODUCT_CATEGORY ( 'detail', '', ( #19 ) ) ;
#101 = CIRCLE ( 'NONE', #28, 12.50000000000000000 ) ;
#102 = CYLINDRICAL_SURFACE ( 'NONE', #151, 12.50000000000000000 ) ;
#103 =( NAMED_UNIT ( * ) PLANE_ANGLE_UNIT ( ) SI_UNIT ( $, .RADIAN. ) );
#104 = SECURITY_CLASSIFICATION ( '', '', #89 ) ;
#105 = VECTOR ( 'NONE', #161, 1000.000000000000000 ) ;
#106 = DESIGN_CONTEXT ( 'detailed design', #2, 'design' ) ;
#107 = CARTESIAN_POINT ( 'NONE',  ( -1.000000000000000000, 0.0000000000000000000, 0.0000000000000000000 ) ) ;
#108 = EDGE_CURVE ( 'NONE', #99, #92, #37, .T. ) ;
#109 = DIRECTION ( 'NONE',  ( 0.0000000000000000000, 0.0000000000000000000, -1.000000000000000000 ) ) ;
#110 =( NAMED_UNIT ( * ) SI_UNIT ( $, .STERADIAN. ) SOLID_ANGLE_UNIT ( ) );
#111 = DIRECTION ( 'NONE',  ( -1.000000000000000000, -0.0000000000000000000, -0.0000000000000000000 ) ) ;
#112 = DIRECTION ( 'NONE',  ( 1.000000000000000000, 0.0000000000000000000, 0.0000000000000000000 ) ) ;
#113 = CC_DESIGN_PERSON_AND_ORGANIZATION_ASSIGNMENT ( #39, #57, ( #104 ) ) ;
#114 = CALENDAR_DATE ( 2020, 27, 7 ) ;
#115 = ORIENTED_EDGE ( 'NONE', *, *, #154, .F. ) ;
#116 = DATE_AND_TIME ( #97, #17 ) ;
#117 = CC_DESIGN_DATE_AND_TIME_ASSIGNMENT ( #83, #38, ( #104 ) ) ;
#118 = EDGE_LOOP ( 'NONE', ( #115, #144 ) ) ;
#119 = CARTESIAN_POINT ( 'NONE',  ( -1.000000000000000000, 0.0000000000000000000, 0.0000000000000000000 ) ) ;
#120 = CLOSED_SHELL ( 'NONE', ( #95, #32, #76, #75 ) ) ;
#121 = CARTESIAN_POINT ( 'NONE',  ( 1.000000000000000000, 0.0000000000000000000, 0.0000000000000000000 ) ) ;
#122 = ORIENTED_EDGE ( 'NONE', *, *, #108, .F. ) ;
#123 = UNCERTAINTY_MEASURE_WITH_UNIT (LENGTH_MEASURE( 1.000000000000000082E-05 ), #147, 'distance_accuracy_value', 'NONE');
#124 = AXIS2_PLACEMENT_3D ( 'NONE', #6, #65, #109 ) ;
#125 = FACE_OUTER_BOUND ( 'NONE', #118, .T. ) ;
#126 = AXIS2_PLACEMENT_3D ( 'NONE', #121, #50, #35 ) ;
#127 = VECTOR ( 'NONE', #51, 1000.000000000000000 ) ;
#128 = DIRECTION ( 'NONE',  ( 0.0000000000000000000, 0.0000000000000000000, -1.000000000000000000 ) ) ;
#129 = DIRECTION ( 'NONE',  ( 0.0000000000000000000, 0.0000000000000000000, 1.000000000000000000 ) ) ;
#130 = EDGE_CURVE ( 'NONE', #92, #174, #55, .T. ) ;
#131 = COORDINATED_UNIVERSAL_TIME_OFFSET ( 5, 0, .BEHIND. ) ;
#132 = DIRECTION ( 'NONE',  ( 0.0000000000000000000, 0.0000000000000000000, -1.000000000000000000 ) ) ;
#133 = CARTESIAN_POINT ( 'NONE',  ( 1.000000000000000000, 0.0000000000000000000, 0.0000000000000000000 ) ) ;
#134 = APPLICATION_PROTOCOL_DEFINITION ( 'international standard', 'config_control_design', 1994, #2 ) ;
#135 = CALENDAR_DATE ( 2020, 27, 7 ) ;
#136 = APPROVAL_ROLE ( '' ) ;
#137 = EDGE_CURVE ( 'NONE', #92, #99, #138, .T. ) ;
#138 = CIRCLE ( 'NONE', #46, 12.50000000000000000 ) ;
#139 = ORIENTED_EDGE ( 'NONE', *, *, #108, .T. ) ;
#140 = CARTESIAN_POINT ( 'NONE',  ( -1.000000000000000000, 0.0000000000000000000, 12.50000000000000000 ) ) ;
#141 = CARTESIAN_POINT ( 'NONE',  ( 1.000000000000000000, 0.0000000000000000000, 12.50000000000000000 ) ) ;
#142 = LOCAL_TIME ( 14, 39, 2.000000000000000000, #4 ) ;
#143 = EDGE_CURVE ( 'NONE', #174, #61, #1, .T. ) ;
#144 = ORIENTED_EDGE ( 'NONE', *, *, #143, .F. ) ;
#145 = APPROVAL_PERSON_ORGANIZATION ( #78, #66, #72 ) ;
#146 = APPROVAL_ROLE ( '' ) ;
#147 =( LENGTH_UNIT ( ) NAMED_UNIT ( * ) SI_UNIT ( .MILLI., .METRE. ) );
#148 = ORIENTED_EDGE ( 'NONE', *, *, #154, .T. ) ;
#149 = PERSON_AND_ORGANIZATION ( #67, #68 ) ;
#150 = SHAPE_DEFINITION_REPRESENTATION ( #168, #91 ) ;
#151 = AXIS2_PLACEMENT_3D ( 'NONE', #133, #111, #156 ) ;
#152 = CALENDAR_DATE ( 2020, 27, 7 ) ;
#153 = EDGE_LOOP ( 'NONE', ( #15, #30, #62, #12 ) ) ;
#154 = EDGE_CURVE ( 'NONE', #61, #174, #101, .T. ) ;
#155 = ORIENTED_EDGE ( 'NONE', *, *, #73, .T. ) ;
#156 = DIRECTION ( 'NONE',  ( 0.0000000000000000000, 0.0000000000000000000, 1.000000000000000000 ) ) ;
#157 = AXIS2_PLACEMENT_3D ( 'NONE', #79, #33, #81 ) ;
#158 = ORIENTED_EDGE ( 'NONE', *, *, #130, .F. ) ;
#159 = MANIFOLD_SOLID_BREP ( 'Boss-Extrude1', #120 ) ;
#160 = COORDINATED_UNIVERSAL_TIME_OFFSET ( 5, 0, .BEHIND. ) ;
#161 = DIRECTION ( 'NONE',  ( -1.000000000000000000, -0.0000000000000000000, -0.0000000000000000000 ) ) ;
#162 = APPLICATION_CONTEXT ( 'configuration controlled 3d designs of mechanical parts and assemblies' ) ;
#163 = LOCAL_TIME ( 14, 39, 2.000000000000000000, #9 ) ;
#164 = APPROVAL_PERSON_ORGANIZATION ( #88, #70, #146 ) ;
#165 = AXIS2_PLACEMENT_3D ( 'NONE', #31, #129, #167 ) ;
#166 = APPROVAL_PERSON_ORGANIZATION ( #14, #44, #136 ) ;
#167 = DIRECTION ( 'NONE',  ( 1.000000000000000000, 0.0000000000000000000, 0.0000000000000000000 ) ) ;
#168 = PRODUCT_DEFINITION_SHAPE ( 'NONE', 'NONE',  #96 ) ;
#169 = EDGE_LOOP ( 'NONE', ( #158, #122, #155, #148 ) ) ;
#170 = AXIS2_PLACEMENT_3D ( 'NONE', #7, #22, #69 ) ;
#171 = CARTESIAN_POINT ( 'NONE',  ( 1.000000000000000000, 1.530808498934191521E-15, -12.50000000000000000 ) ) ;
#172 = CC_DESIGN_APPROVAL ( #66, ( #104 ) ) ;
#173 = CC_DESIGN_PERSON_AND_ORGANIZATION_ASSIGNMENT ( #82, #85, ( #13 ) ) ;
#174 = VERTEX_POINT ( 'NONE', #3 ) ;
#175 = MECHANICAL_CONTEXT ( 'NONE', #162, 'mechanical' ) ;
ENDSEC;
END-ISO-10303-21;
