ISO-10303-21;
HEADER;
FILE_DESCRIPTION (( 'STEP AP203' ),
    '1' );
FILE_NAME ('20221-E0W.STEP',
    '2009-09-14T20:09:28',
    ( 'Admin' ),
    ( 'Thorlabs, Inc.' ),
    'SwSTEP 2.0',
    'SolidWorks 2007',
    '' );
FILE_SCHEMA (( 'CONFIG_CONTROL_DESIGN' ));
ENDSEC;

DATA;
#1 = ADVANCED_FACE ( 'NONE', ( #43 ), #42, .T. ) ;
#2 = ORIENTED_EDGE ( 'NONE', *, *, #203, .F. ) ;
#3 = EDGE_LOOP ( 'NONE', ( #5, #4, #2 ) ) ;
#4 = ORIENTED_EDGE ( 'NONE', *, *, #29, .T. ) ;
#5 = ORIENTED_EDGE ( 'NONE', *, *, #10, .F. ) ;
#6 = ORIENTED_EDGE ( 'NONE', *, *, #7, .T. ) ;
#7 = EDGE_CURVE ( 'NONE', #224, #227, #38, .T. ) ;
#8 = ORIENTED_EDGE ( 'NONE', *, *, #20, .F. ) ;
#9 = ORIENTED_EDGE ( 'NONE', *, *, #226, .T. ) ;
#10 = EDGE_CURVE ( 'NONE', #16, #221, #37, .T. ) ;
#11 = ORIENTED_EDGE ( 'NONE', *, *, #19, .F. ) ;
#12 = ORIENTED_EDGE ( 'NONE', *, *, #220, .F. ) ;
#13 = EDGE_LOOP ( 'NONE', ( #11, #18, #9 ) ) ;
#14 = VERTEX_POINT ( 'NONE', #32 ) ;
#15 = EDGE_LOOP ( 'NONE', ( #8, #23, #6 ) ) ;
#16 = VERTEX_POINT ( 'NONE', #31 ) ;
#17 = ORIENTED_EDGE ( 'NONE', *, *, #10, .T. ) ;
#18 = ORIENTED_EDGE ( 'NONE', *, *, #20, .T. ) ;
#19 = EDGE_CURVE ( 'NONE', #14, #224, #52, .T. ) ;
#20 = EDGE_CURVE ( 'NONE', #14, #227, #47, .T. ) ;
#21 = ADVANCED_FACE ( 'NONE', ( #60 ), #59, .F. ) ;
#22 = ADVANCED_FACE ( 'NONE', ( #58 ), #24, .F. ) ;
#23 = ORIENTED_EDGE ( 'NONE', *, *, #19, .T. ) ;
#24 = SPHERICAL_SURFACE ( 'NONE', #26, 367.4900000000000100 ) ;
#25 = DIRECTION ( 'NONE',  ( 0.0000000000000000000, 1.000000000000000000, 1.510548619860617500E-016 ) ) ;
#26 = AXIS2_PLACEMENT_3D ( 'NONE', #28, #27, #25 ) ;
#27 = DIRECTION ( 'NONE',  ( -1.000000000000000000, 0.0000000000000000000, 0.0000000000000000000 ) ) ;
#28 = CARTESIAN_POINT ( 'NONE',  ( 0.0000000000000000000, 0.0000000000000000000, 369.4900000000000100 ) ) ;
#29 = EDGE_CURVE ( 'NONE', #16, #219, #70, .T. ) ;
#30 = ORIENTED_EDGE ( 'NONE', *, *, #29, .F. ) ;
#31 = CARTESIAN_POINT ( 'NONE',  ( 0.0000000000000000000, 3.588684427749399600E-014, -2.000000000000001800 ) ) ;
#32 = CARTESIAN_POINT ( 'NONE',  ( 0.0000000000000000000, 9.000611779323707500E-014, 2.000000000000001800 ) ) ;
#33 = DIRECTION ( 'NONE',  ( 1.224606353822377000E-016, 1.000000000000000000, 0.0000000000000000000 ) ) ;
#34 = DIRECTION ( 'NONE',  ( 1.000000000000000000, -1.224606353822377300E-016, -2.249491082733206200E-032 ) ) ;
#35 = CARTESIAN_POINT ( 'NONE',  ( 0.0000000000000000000, 0.0000000000000000000, 291.0480000000000000 ) ) ;
#36 = AXIS2_PLACEMENT_3D ( 'NONE', #35, #34, #33 ) ;
#37 = CIRCLE ( 'NONE', #36, 293.0480000000000000 ) ;
#38 = CIRCLE ( 'NONE', #46, 12.69999999999999900 ) ;
#39 = DIRECTION ( 'NONE',  ( 0.0000000000000000000, -1.000000000000000000, -1.894268216512579300E-016 ) ) ;
#40 = DIRECTION ( 'NONE',  ( 1.000000000000000000, 0.0000000000000000000, 0.0000000000000000000 ) ) ;
#41 = AXIS2_PLACEMENT_3D ( 'NONE', #65, #40, #39 ) ;
#42 = SPHERICAL_SURFACE ( 'NONE', #41, 293.0480000000000000 ) ;
#43 = FACE_OUTER_BOUND ( 'NONE', #3, .T. ) ;
#44 = DIRECTION ( 'NONE',  ( 0.0000000000000000000, -1.000000000000000000, -1.707404996040164500E-016 ) ) ;
#45 = DIRECTION ( 'NONE',  ( 0.0000000000000000000, -1.836909530733565900E-016, 1.000000000000000000 ) ) ;
#46 = AXIS2_PLACEMENT_3D ( 'NONE', #64, #45, #44 ) ;
#47 = CIRCLE ( 'NONE', #63, 367.4900000000000100 ) ;
#48 = DIRECTION ( 'NONE',  ( 0.0000000000000000000, 0.0000000000000000000, -1.000000000000000000 ) ) ;
#49 = DIRECTION ( 'NONE',  ( 1.000000000000000000, 0.0000000000000000000, 0.0000000000000000000 ) ) ;
#50 = CARTESIAN_POINT ( 'NONE',  ( 0.0000000000000000000, 0.0000000000000000000, 369.4900000000000100 ) ) ;
#51 = AXIS2_PLACEMENT_3D ( 'NONE', #50, #49, #48 ) ;
#52 = CIRCLE ( 'NONE', #51, 367.4900000000000100 ) ;
#53 = CARTESIAN_POINT ( 'NONE',  ( 0.0000000000000000000, 0.0000000000000000000, 369.4900000000000100 ) ) ;
#54 = DIRECTION ( 'NONE',  ( 0.0000000000000000000, 1.000000000000000000, 1.510548619860617500E-016 ) ) ;
#55 = DIRECTION ( 'NONE',  ( -1.000000000000000000, 0.0000000000000000000, 0.0000000000000000000 ) ) ;
#56 = CARTESIAN_POINT ( 'NONE',  ( 0.0000000000000000000, 0.0000000000000000000, 369.4900000000000100 ) ) ;
#57 = AXIS2_PLACEMENT_3D ( 'NONE', #56, #55, #54 ) ;
#58 = FACE_OUTER_BOUND ( 'NONE', #15, .T. ) ;
#59 = SPHERICAL_SURFACE ( 'NONE', #57, 367.4900000000000100 ) ;
#60 = FACE_OUTER_BOUND ( 'NONE', #13, .T. ) ;
#61 = DIRECTION ( 'NONE',  ( -1.224606353822377000E-016, -1.000000000000000000, 0.0000000000000000000 ) ) ;
#62 = DIRECTION ( 'NONE',  ( -1.000000000000000000, 1.224606353822377300E-016, 2.249491082733206200E-032 ) ) ;
#63 = AXIS2_PLACEMENT_3D ( 'NONE', #53, #62, #61 ) ;
#64 = CARTESIAN_POINT ( 'NONE',  ( 0.0000000000000000000, -4.032268252580661000E-017, 2.219513709582114500 ) ) ;
#65 = CARTESIAN_POINT ( 'NONE',  ( 0.0000000000000000000, 0.0000000000000000000, 291.0480000000000000 ) ) ;
#66 = DIRECTION ( 'NONE',  ( 0.0000000000000000000, 0.0000000000000000000, 1.000000000000000000 ) ) ;
#67 = DIRECTION ( 'NONE',  ( -1.000000000000000000, 0.0000000000000000000, 0.0000000000000000000 ) ) ;
#68 = CARTESIAN_POINT ( 'NONE',  ( 0.0000000000000000000, 0.0000000000000000000, 291.0480000000000000 ) ) ;
#69 = AXIS2_PLACEMENT_3D ( 'NONE', #68, #67, #66 ) ;
#70 = CIRCLE ( 'NONE', #69, 293.0480000000000000 ) ;
#71 =( LENGTH_UNIT ( ) NAMED_UNIT ( * ) SI_UNIT ( .MILLI., .METRE. ) );
#72 = CARTESIAN_POINT ( 'NONE',  ( -1.555250069354309400E-015, -12.69999999999903800, 2.219513709582117100 ) ) ;
#73 = CARTESIAN_POINT ( 'NONE',  ( 0.0000000000000000000, 0.0000000000000000000, 2.000000000000000000 ) ) ;
#74 = DIRECTION ( 'NONE',  ( 1.000000000000000000, 0.0000000000000000000, 0.0000000000000000000 ) ) ;
#75 = AXIS2_PLACEMENT_3D ( 'NONE', #125, #74, #202 ) ;
#76 = FACE_OUTER_BOUND ( 'NONE', #217, .T. ) ;
#77 = PERSON_AND_ORGANIZATION ( #186, #185 ) ;
#78 = SECURITY_CLASSIFICATION ( '', '', #79 ) ;
#79 = SECURITY_CLASSIFICATION_LEVEL ( 'unclassified' ) ;
#80 = CC_DESIGN_PERSON_AND_ORGANIZATION_ASSIGNMENT ( #82, #81, ( #97 ) ) ;
#81 = PERSON_AND_ORGANIZATION_ROLE ( 'design_supplier' ) ;
#82 = PERSON_AND_ORGANIZATION ( #186, #185 ) ;
#83 = CC_DESIGN_PERSON_AND_ORGANIZATION_ASSIGNMENT ( #85, #84, ( #97 ) ) ;
#84 = PERSON_AND_ORGANIZATION_ROLE ( 'creator' ) ;
#85 = PERSON_AND_ORGANIZATION ( #186, #185 ) ;
#86 = CC_DESIGN_APPROVAL ( #94, ( #97 ) ) ;
#87 = APPROVAL_DATE_TIME ( #88, #94 ) ;
#88 = DATE_AND_TIME ( #89, #90 ) ;
#89 = CALENDAR_DATE ( 2009, 14, 9 ) ;
#90 = LOCAL_TIME ( 16, 9, 28.00000000000000000, #91 ) ;
#91 = COORDINATED_UNIVERSAL_TIME_OFFSET ( 5, 0, .BEHIND. ) ;
#92 = APPROVAL_PERSON_ORGANIZATION ( #96, #94, #93 ) ;
#93 = APPROVAL_ROLE ( '' ) ;
#94 = APPROVAL ( #95, 'UNSPECIFIED' ) ;
#95 = APPROVAL_STATUS ( 'not_yet_approved' ) ;
#96 = PERSON_AND_ORGANIZATION ( #186, #185 ) ;
#97 = PRODUCT_DEFINITION_FORMATION_WITH_SPECIFIED_SOURCE ( 'ANY', '', #187, .NOT_KNOWN. ) ;
#98 = CC_DESIGN_DATE_AND_TIME_ASSIGNMENT ( #100, #99, ( #144 ) ) ;
#99 = DATE_TIME_ROLE ( 'creation_date' ) ;
#100 = DATE_AND_TIME ( #101, #128 ) ;
#101 = CALENDAR_DATE ( 2009, 14, 9 ) ;
#102 = DIRECTION ( 'NONE',  ( 0.0000000000000000000, -1.000000000000000000, -1.707404996040164500E-016 ) ) ;
#103 = DIRECTION ( 'NONE',  ( 0.0000000000000000000, -1.836909530733565900E-016, 1.000000000000000000 ) ) ;
#104 = CARTESIAN_POINT ( 'NONE',  ( 0.0000000000000000000, -4.032268252580661000E-017, 2.219513709582114500 ) ) ;
#105 = AXIS2_PLACEMENT_3D ( 'NONE', #104, #103, #102 ) ;
#106 = CIRCLE ( 'NONE', #105, 12.69999999999999900 ) ;
#107 = AXIS2_PLACEMENT_3D ( 'NONE', #111, #121, #120 ) ;
#108 = CIRCLE ( 'NONE', #107, 12.69999999999999800 ) ;
#109 = CARTESIAN_POINT ( 'NONE',  ( 1.555250069354402500E-015, 12.69999999999991600, -1.724676839899103000 ) ) ;
#110 = CARTESIAN_POINT ( 'NONE',  ( 0.0000000000000000000, 0.0000000000000000000, 2.000000000000000000 ) ) ;
#111 = CARTESIAN_POINT ( 'NONE',  ( 0.0000000000000000000, 6.841894386113297700E-016, -1.724676839899133000 ) ) ;
#112 = CIRCLE ( 'NONE', #150, 12.69999999999999800 ) ;
#113 = DIRECTION ( 'NONE',  ( 0.0000000000000000000, -1.000000000000000000, -1.707404996040164500E-016 ) ) ;
#114 = DIRECTION ( 'NONE',  ( 0.0000000000000000000, -1.836909530733565900E-016, 1.000000000000000000 ) ) ;
#115 = AXIS2_PLACEMENT_3D ( 'NONE', #73, #114, #113 ) ;
#116 = FACE_OUTER_BOUND ( 'NONE', #205, .T. ) ;
#117 = SPHERICAL_SURFACE ( 'NONE', #75, 293.0480000000000000 ) ;
#118 = FACE_OUTER_BOUND ( 'NONE', #210, .T. ) ;
#119 = DIRECTION ( 'NONE',  ( 0.0000000000000000000, -1.836909530733565900E-016, 1.000000000000000000 ) ) ;
#120 = DIRECTION ( 'NONE',  ( 0.0000000000000000000, -1.000000000000000000, -1.878145495644181300E-016 ) ) ;
#121 = DIRECTION ( 'NONE',  ( 0.0000000000000000000, -1.836909530733565900E-016, 1.000000000000000000 ) ) ;
#122 = VECTOR ( 'NONE', #119, 1000.000000000000000 ) ;
#123 = CARTESIAN_POINT ( 'NONE',  ( 0.0000000000000000000, -12.69999999999999900, 1.999999999999997800 ) ) ;
#124 = LINE ( 'NONE', #123, #122 ) ;
#125 = CARTESIAN_POINT ( 'NONE',  ( 0.0000000000000000000, 0.0000000000000000000, 291.0480000000000000 ) ) ;
#126 = DIRECTION ( 'NONE',  ( 0.0000000000000000000, -1.000000000000000000, -1.878145495644181300E-016 ) ) ;
#127 = DIRECTION ( 'NONE',  ( 0.0000000000000000000, -1.836909530733565900E-016, 1.000000000000000000 ) ) ;
#128 = LOCAL_TIME ( 16, 9, 28.00000000000000000, #129 ) ;
#129 = COORDINATED_UNIVERSAL_TIME_OFFSET ( 5, 0, .BEHIND. ) ;
#130 = CC_DESIGN_PERSON_AND_ORGANIZATION_ASSIGNMENT ( #132, #131, ( #144 ) ) ;
#131 = PERSON_AND_ORGANIZATION_ROLE ( 'creator' ) ;
#132 = PERSON_AND_ORGANIZATION ( #186, #185 ) ;
#133 = CC_DESIGN_APPROVAL ( #141, ( #144 ) ) ;
#134 = APPROVAL_DATE_TIME ( #135, #141 ) ;
#135 = DATE_AND_TIME ( #136, #137 ) ;
#136 = CALENDAR_DATE ( 2009, 14, 9 ) ;
#137 = LOCAL_TIME ( 16, 9, 28.00000000000000000, #138 ) ;
#138 = COORDINATED_UNIVERSAL_TIME_OFFSET ( 5, 0, .BEHIND. ) ;
#139 = APPROVAL_PERSON_ORGANIZATION ( #143, #141, #140 ) ;
#140 = APPROVAL_ROLE ( '' ) ;
#141 = APPROVAL ( #142, 'UNSPECIFIED' ) ;
#142 = APPROVAL_STATUS ( 'not_yet_approved' ) ;
#143 = PERSON_AND_ORGANIZATION ( #186, #185 ) ;
#144 = PRODUCT_DEFINITION ( 'UNKNOWN', '', #97, #145 ) ;
#145 = DESIGN_CONTEXT ( 'detailed design', #147, 'design' ) ;
#146 = APPLICATION_PROTOCOL_DEFINITION ( 'international standard', 'config_control_design', 1994, #147 ) ;
#147 = APPLICATION_CONTEXT ( 'configuration controlled 3d designs of mechanical parts and assemblies' ) ;
#148 = CC_DESIGN_PERSON_AND_ORGANIZATION_ASSIGNMENT ( #184, #183, ( #187 ) ) ;
#149 = CARTESIAN_POINT ( 'NONE',  ( 0.0000000000000000000, 6.841894386113297700E-016, -1.724676839899133000 ) ) ;
#150 = AXIS2_PLACEMENT_3D ( 'NONE', #149, #127, #126 ) ;
#151 = CARTESIAN_POINT ( 'NONE',  ( 0.0000000000000000000, -12.69999999999986400, -1.724676839899105300 ) ) ;
#152 = DIRECTION ( 'NONE',  ( 0.0000000000000000000, -1.000000000000000000, -1.707404996040164500E-016 ) ) ;
#153 = DIRECTION ( 'NONE',  ( 0.0000000000000000000, -1.836909530733565900E-016, 1.000000000000000000 ) ) ;
#154 = AXIS2_PLACEMENT_3D ( 'NONE', #110, #153, #152 ) ;
#155 = UNCERTAINTY_MEASURE_WITH_UNIT (LENGTH_MEASURE( 1.000000000000000100E-005 ), #71, 'distance_accuracy_value', 'NONE');
#156 =( NAMED_UNIT ( * ) SI_UNIT ( $, .STERADIAN. ) SOLID_ANGLE_UNIT ( ) );
#157 =( NAMED_UNIT ( * ) PLANE_ANGLE_UNIT ( ) SI_UNIT ( $, .RADIAN. ) );
#158 = CARTESIAN_POINT ( 'NONE',  ( 0.0000000000000000000, 0.0000000000000000000, 0.0000000000000000000 ) ) ;
#159 = SHAPE_DEFINITION_REPRESENTATION ( #161, #160 ) ;
#160 = ADVANCED_BREP_SHAPE_REPRESENTATION ( '20221-E0W', ( #215, #199 ), #200 ) ;
#161 = PRODUCT_DEFINITION_SHAPE ( 'NONE', 'NONE',  #144 ) ;
#162 = PRODUCT_RELATED_PRODUCT_CATEGORY ( 'detail', '', ( #187 ) ) ;
#163 = CC_DESIGN_SECURITY_CLASSIFICATION ( #78, ( #97 ) ) ;
#164 = CC_DESIGN_APPROVAL ( #172, ( #78 ) ) ;
#165 = APPROVAL_DATE_TIME ( #166, #172 ) ;
#166 = DATE_AND_TIME ( #167, #168 ) ;
#167 = CALENDAR_DATE ( 2009, 14, 9 ) ;
#168 = LOCAL_TIME ( 16, 9, 28.00000000000000000, #169 ) ;
#169 = COORDINATED_UNIVERSAL_TIME_OFFSET ( 5, 0, .BEHIND. ) ;
#170 = APPROVAL_PERSON_ORGANIZATION ( #174, #172, #171 ) ;
#171 = APPROVAL_ROLE ( '' ) ;
#172 = APPROVAL ( #173, 'UNSPECIFIED' ) ;
#173 = APPROVAL_STATUS ( 'not_yet_approved' ) ;
#174 = PERSON_AND_ORGANIZATION ( #186, #185 ) ;
#175 = CC_DESIGN_DATE_AND_TIME_ASSIGNMENT ( #177, #176, ( #78 ) ) ;
#176 = DATE_TIME_ROLE ( 'classification_date' ) ;
#177 = DATE_AND_TIME ( #178, #179 ) ;
#178 = CALENDAR_DATE ( 2009, 14, 9 ) ;
#179 = LOCAL_TIME ( 16, 9, 28.00000000000000000, #180 ) ;
#180 = COORDINATED_UNIVERSAL_TIME_OFFSET ( 5, 0, .BEHIND. ) ;
#181 = CC_DESIGN_PERSON_AND_ORGANIZATION_ASSIGNMENT ( #77, #182, ( #78 ) ) ;
#182 = PERSON_AND_ORGANIZATION_ROLE ( 'classification_officer' ) ;
#183 = PERSON_AND_ORGANIZATION_ROLE ( 'design_owner' ) ;
#184 = PERSON_AND_ORGANIZATION ( #186, #185 ) ;
#185 = ORGANIZATION ( 'UNSPECIFIED', 'UNSPECIFIED', '' ) ;
#186 = PERSON ( 'UNSPECIFIED', 'UNSPECIFIED', 'UNSPECIFIED', ('UNSPECIFIED'), ('UNSPECIFIED'), ('UNSPECIFIED') ) ;
#187 = PRODUCT ( '20221-E0W', '20221-E0W', '', ( #188 ) ) ;
#188 = MECHANICAL_CONTEXT ( 'NONE', #190, 'mechanical' ) ;
#189 = APPLICATION_PROTOCOL_DEFINITION ( 'international standard', 'config_control_design', 1994, #190 ) ;
#190 = APPLICATION_CONTEXT ( 'configuration controlled 3d designs of mechanical parts and assemblies' ) ;
#191 = CYLINDRICAL_SURFACE ( 'NONE', #115, 12.69999999999999900 ) ;
#192 = CARTESIAN_POINT ( 'NONE',  ( 0.0000000000000000000, 12.69999999999910800, 2.219513709582118900 ) ) ;
#193 = DIRECTION ( 'NONE',  ( 0.0000000000000000000, -1.836909530733565900E-016, 1.000000000000000000 ) ) ;
#194 = VECTOR ( 'NONE', #193, 1000.000000000000000 ) ;
#195 = CARTESIAN_POINT ( 'NONE',  ( 1.555250069354419100E-015, 12.69999999999999900, 2.000000000000002200 ) ) ;
#196 = LINE ( 'NONE', #195, #194 ) ;
#197 = DIRECTION ( 'NONE',  ( 1.000000000000000000, 0.0000000000000000000, 0.0000000000000000000 ) ) ;
#198 = DIRECTION ( 'NONE',  ( 0.0000000000000000000, 0.0000000000000000000, 1.000000000000000000 ) ) ;
#199 = AXIS2_PLACEMENT_3D ( 'NONE', #158, #198, #197 ) ;
#200 =( GEOMETRIC_REPRESENTATION_CONTEXT ( 3 ) GLOBAL_UNCERTAINTY_ASSIGNED_CONTEXT ( ( #155 ) ) GLOBAL_UNIT_ASSIGNED_CONTEXT ( ( #71, #157, #156 ) ) REPRESENTATION_CONTEXT ( 'NONE', 'WORKASPACE' ) );
#201 = CYLINDRICAL_SURFACE ( 'NONE', #154, 12.69999999999999900 ) ;
#202 = DIRECTION ( 'NONE',  ( 0.0000000000000000000, -1.000000000000000000, -1.894268216512579300E-016 ) ) ;
#203 = EDGE_CURVE ( 'NONE', #221, #219, #112, .T. ) ;
#204 = ADVANCED_FACE ( 'NONE', ( #116 ), #191, .T. ) ;
#205 = EDGE_LOOP ( 'NONE', ( #206, #211, #212, #213 ) ) ;
#206 = ORIENTED_EDGE ( 'NONE', *, *, #223, .F. ) ;
#207 = ORIENTED_EDGE ( 'NONE', *, *, #208, .F. ) ;
#208 = EDGE_CURVE ( 'NONE', #219, #227, #124, .T. ) ;
#209 = ADVANCED_FACE ( 'NONE', ( #118 ), #117, .T. ) ;
#210 = EDGE_LOOP ( 'NONE', ( #30, #17, #12 ) ) ;
#211 = ORIENTED_EDGE ( 'NONE', *, *, #203, .T. ) ;
#212 = ORIENTED_EDGE ( 'NONE', *, *, #208, .T. ) ;
#213 = ORIENTED_EDGE ( 'NONE', *, *, #7, .F. ) ;
#214 = CLOSED_SHELL ( 'NONE', ( #216, #209, #21, #22, #1, #204 ) ) ;
#215 = MANIFOLD_SOLID_BREP ( 'NONE', #214 ) ;
#216 = ADVANCED_FACE ( 'NONE', ( #76 ), #201, .T. ) ;
#217 = EDGE_LOOP ( 'NONE', ( #218, #222, #225, #207 ) ) ;
#218 = ORIENTED_EDGE ( 'NONE', *, *, #220, .T. ) ;
#219 = VERTEX_POINT ( 'NONE', #151 ) ;
#220 = EDGE_CURVE ( 'NONE', #219, #221, #108, .T. ) ;
#221 = VERTEX_POINT ( 'NONE', #109 ) ;
#222 = ORIENTED_EDGE ( 'NONE', *, *, #223, .T. ) ;
#223 = EDGE_CURVE ( 'NONE', #221, #224, #196, .T. ) ;
#224 = VERTEX_POINT ( 'NONE', #192 ) ;
#225 = ORIENTED_EDGE ( 'NONE', *, *, #226, .F. ) ;
#226 = EDGE_CURVE ( 'NONE', #227, #224, #106, .T. ) ;
#227 = VERTEX_POINT ( 'NONE', #72 ) ;
ENDSEC;
END-ISO-10303-21;
