ISO-10303-21;
HEADER;
FILE_DESCRIPTION (( 'STEP AP203' ),
    '1' );
FILE_NAME ('Web Model 13396_13396.step',
    '2021-06-30T20:28:21',
    ( '' ),
    ( '' ),
    'SwSTEP 2.0',
    'SolidWorks 2018',
    '' );
FILE_SCHEMA (( 'CONFIG_CONTROL_DESIGN' ));
ENDSEC;

DATA;
#1 = CC_DESIGN_APPROVAL ( #38, ( #65 ) ) ;
#2 = ORIENTED_EDGE ( 'NONE', *, *, #151, .F. ) ;
#3 = FACE_OUTER_BOUND ( 'NONE', #172, .T. ) ;
#4 = ADVANCED_FACE ( 'NONE', ( #63 ), #66, .F. ) ;
#5 = VECTOR ( 'NONE', #13, 1000.000000000000000 ) ;
#6 = PERSON_AND_ORGANIZATION_ROLE ( 'creator' ) ;
#7 = FACE_OUTER_BOUND ( 'NONE', #146, .T. ) ;
#8 = ADVANCED_FACE ( 'NONE', ( #7 ), #123, .F. ) ;
#9 = DIRECTION ( 'NONE',  ( 1.000000000000000000, 0.000000000000000000, 0.000000000000000000 ) ) ;
#10 = CARTESIAN_POINT ( 'NONE',  ( 0.000000000000000000, 0.000000000000000000, 0.000000000000000000 ) ) ;
#11 = DIRECTION ( 'NONE',  ( 0.000000000000000000, 0.000000000000000000, 1.000000000000000000 ) ) ;
#12 = DIRECTION ( 'NONE',  ( 1.000000000000000000, 0.000000000000000000, 0.000000000000000000 ) ) ;
#13 = DIRECTION ( 'NONE',  ( 1.000000000000000000, 0.000000000000000000, 0.000000000000000000 ) ) ;
#14 = LINE ( 'NONE', #178, #52 ) ;
#15 = ORIENTED_EDGE ( 'NONE', *, *, #132, .F. ) ;
#16 = CARTESIAN_POINT ( 'NONE',  ( -6.250000000000003553, 6.250000000000001776, 1.000000000000000000 ) ) ;
#17 = DIRECTION ( 'NONE',  ( -1.387778780781445676E-16, 1.000000000000000000, 0.000000000000000000 ) ) ;
#18 = LOCAL_TIME ( 16, 28, 21.00000000000000000, #152 ) ;
#19 = EDGE_LOOP ( 'NONE', ( #202, #144, #45, #134 ) ) ;
#20 = CC_DESIGN_DATE_AND_TIME_ASSIGNMENT ( #56, #167, ( #109 ) ) ;
#21 = ORIENTED_EDGE ( 'NONE', *, *, #221, .F. ) ;
#22 = APPROVAL_STATUS ( 'not_yet_approved' ) ;
#23 = CC_DESIGN_PERSON_AND_ORGANIZATION_ASSIGNMENT ( #113, #89, ( #65 ) ) ;
#24 = APPROVAL_ROLE ( '' ) ;
#25 = EDGE_CURVE ( 'NONE', #164, #124, #198, .T. ) ;
#26 =( LENGTH_UNIT ( ) NAMED_UNIT ( * ) SI_UNIT ( .MILLI., .METRE. ) );
#27 = ORIENTED_EDGE ( 'NONE', *, *, #122, .F. ) ;
#28 = CARTESIAN_POINT ( 'NONE',  ( -6.250000000000003553, 6.250000000000001776, 0.000000000000000000 ) ) ;
#29 = CC_DESIGN_PERSON_AND_ORGANIZATION_ASSIGNMENT ( #75, #209, ( #116 ) ) ;
#30 = LINE ( 'NONE', #28, #189 ) ;
#31 = CARTESIAN_POINT ( 'NONE',  ( -6.250000000000001776, -6.249999999999998224, 0.000000000000000000 ) ) ;
#32 = PERSON_AND_ORGANIZATION ( #162, #131 ) ;
#33 = CARTESIAN_POINT ( 'NONE',  ( -6.250000000000003553, 6.250000000000001776, 1.000000000000000000 ) ) ;
#34 = APPROVAL ( #107, 'UNSPECIFIED' ) ;
#35 = EDGE_CURVE ( 'NONE', #86, #236, #153, .T. ) ;
#36 = ORIENTED_EDGE ( 'NONE', *, *, #114, .T. ) ;
#37 = LINE ( 'NONE', #233, #225 ) ;
#38 = APPROVAL ( #22, 'UNSPECIFIED' ) ;
#39 = ORIENTED_EDGE ( 'NONE', *, *, #151, .T. ) ;
#40 = LINE ( 'NONE', #228, #181 ) ;
#41 = APPROVAL_PERSON_ORGANIZATION ( #76, #38, #88 ) ;
#42 = APPLICATION_PROTOCOL_DEFINITION ( 'international standard', 'config_control_design', 1994, #43 ) ;
#43 = APPLICATION_CONTEXT ( 'configuration controlled 3d designs of mechanical parts and assemblies' ) ;
#44 = CARTESIAN_POINT ( 'NONE',  ( -6.250000000000001776, -6.249999999999998224, 0.000000000000000000 ) ) ;
#45 = ORIENTED_EDGE ( 'NONE', *, *, #35, .F. ) ;
#46 = FACE_OUTER_BOUND ( 'NONE', #234, .T. ) ;
#47 = DIRECTION ( 'NONE',  ( -0.000000000000000000, 0.000000000000000000, 1.000000000000000000 ) ) ;
#48 = CC_DESIGN_PERSON_AND_ORGANIZATION_ASSIGNMENT ( #157, #220, ( #70 ) ) ;
#49 = ORIENTED_EDGE ( 'NONE', *, *, #192, .T. ) ;
#50 = ORIENTED_EDGE ( 'NONE', *, *, #183, .F. ) ;
#51 = DATE_AND_TIME ( #96, #150 ) ;
#52 = VECTOR ( 'NONE', #62, 1000.000000000000000 ) ;
#53 = MANIFOLD_SOLID_BREP ( 'Boss-Extrude1', #169 ) ;
#54 = LINE ( 'NONE', #210, #231 ) ;
#55 = ORIENTED_EDGE ( 'NONE', *, *, #25, .F. ) ;
#56 = DATE_AND_TIME ( #105, #58 ) ;
#57 = ORIENTED_EDGE ( 'NONE', *, *, #90, .F. ) ;
#58 = LOCAL_TIME ( 16, 28, 21.00000000000000000, #208 ) ;
#59 = DIRECTION ( 'NONE',  ( -1.000000000000000000, -0.000000000000000000, -0.000000000000000000 ) ) ;
#60 = DIRECTION ( 'NONE',  ( 0.000000000000000000, 1.000000000000000000, 0.000000000000000000 ) ) ;
#61 = CARTESIAN_POINT ( 'NONE',  ( 6.249999999999996447, 6.250000000000001776, 0.000000000000000000 ) ) ;
#62 = DIRECTION ( 'NONE',  ( -1.387778780781445676E-16, 1.000000000000000000, -0.000000000000000000 ) ) ;
#63 = FACE_OUTER_BOUND ( 'NONE', #19, .T. ) ;
#64 = CARTESIAN_POINT ( 'NONE',  ( 6.249999999999996447, 6.250000000000001776, 1.000000000000000000 ) ) ;
#65 = PRODUCT_DEFINITION_FORMATION_WITH_SPECIFIED_SOURCE ( 'ANY', '', #116, .NOT_KNOWN. ) ;
#66 = PLANE ( 'NONE',  #145 ) ;
#67 = CALENDAR_DATE ( 2021, 30, 6 ) ;
#68 = LINE ( 'NONE', #121, #103 ) ;
#69 = COORDINATED_UNIVERSAL_TIME_OFFSET ( 5, 0, .BEHIND. ) ;
#70 = SECURITY_CLASSIFICATION ( '', '', #108 ) ;
#71 = VECTOR ( 'NONE', #80, 1000.000000000000000 ) ;
#72 = ADVANCED_FACE ( 'NONE', ( #92 ), #165, .F. ) ;
#73 = CC_DESIGN_PERSON_AND_ORGANIZATION_ASSIGNMENT ( #212, #6, ( #65 ) ) ;
#74 = ORIENTED_EDGE ( 'NONE', *, *, #192, .F. ) ;
#75 = PERSON_AND_ORGANIZATION ( #162, #131 ) ;
#76 = PERSON_AND_ORGANIZATION ( #162, #131 ) ;
#77 = APPLICATION_CONTEXT ( 'configuration controlled 3d designs of mechanical parts and assemblies' ) ;
#78 = AXIS2_PLACEMENT_3D ( 'NONE', #33, #83, #141 ) ;
#79 = CARTESIAN_POINT ( 'NONE',  ( 6.249999999999998224, -6.249999999999998224, 0.000000000000000000 ) ) ;
#80 = DIRECTION ( 'NONE',  ( -1.387778780781445676E-16, 1.000000000000000000, -0.000000000000000000 ) ) ;
#81 = ORIENTED_EDGE ( 'NONE', *, *, #221, .T. ) ;
#82 = CARTESIAN_POINT ( 'NONE',  ( -6.250000000000003553, 6.250000000000001776, 1.000000000000000000 ) ) ;
#83 = DIRECTION ( 'NONE',  ( 0.000000000000000000, -1.000000000000000000, 0.000000000000000000 ) ) ;
#84 = AXIS2_PLACEMENT_3D ( 'NONE', #10, #47, #120 ) ;
#85 = AXIS2_PLACEMENT_3D ( 'NONE', #138, #11, #12 ) ;
#86 = VERTEX_POINT ( 'NONE', #99 ) ;
#87 = CC_DESIGN_DATE_AND_TIME_ASSIGNMENT ( #222, #174, ( #70 ) ) ;
#88 = APPROVAL_ROLE ( '' ) ;
#89 = PERSON_AND_ORGANIZATION_ROLE ( 'design_supplier' ) ;
#90 = EDGE_CURVE ( 'NONE', #164, #86, #112, .T. ) ;
#91 = VERTEX_POINT ( 'NONE', #31 ) ;
#92 = FACE_OUTER_BOUND ( 'NONE', #149, .T. ) ;
#93 = CARTESIAN_POINT ( 'NONE',  ( -6.250000000000001776, -6.249999999999998224, 1.000000000000000000 ) ) ;
#94 =( NAMED_UNIT ( * ) SI_UNIT ( $, .STERADIAN. ) SOLID_ANGLE_UNIT ( ) );
#95 = APPROVAL_STATUS ( 'not_yet_approved' ) ;
#96 = CALENDAR_DATE ( 2021, 30, 6 ) ;
#97 = DIRECTION ( 'NONE',  ( -0.000000000000000000, -0.000000000000000000, -1.000000000000000000 ) ) ;
#98 = PLANE ( 'NONE',  #84 ) ;
#99 = CARTESIAN_POINT ( 'NONE',  ( -6.250000000000003553, 6.250000000000001776, 1.000000000000000000 ) ) ;
#100 = AXIS2_PLACEMENT_3D ( 'NONE', #135, #224, #9 ) ;
#101 = VECTOR ( 'NONE', #194, 1000.000000000000000 ) ;
#102 = ORIENTED_EDGE ( 'NONE', *, *, #158, .T. ) ;
#103 = VECTOR ( 'NONE', #227, 1000.000000000000000 ) ;
#104 = ADVANCED_BREP_SHAPE_REPRESENTATION ( 'Web Model 13396_13396', ( #53, #85 ), #106 ) ;
#105 = CALENDAR_DATE ( 2021, 30, 6 ) ;
#106 =( GEOMETRIC_REPRESENTATION_CONTEXT ( 3 ) GLOBAL_UNCERTAINTY_ASSIGNED_CONTEXT ( ( #119 ) ) GLOBAL_UNIT_ASSIGNED_CONTEXT ( ( #26, #115, #94 ) ) REPRESENTATION_CONTEXT ( 'NONE', 'WORKASPACE' ) );
#107 = APPROVAL_STATUS ( 'not_yet_approved' ) ;
#108 = SECURITY_CLASSIFICATION_LEVEL ( 'unclassified' ) ;
#109 = PRODUCT_DEFINITION ( 'UNKNOWN', '', #65, #142 ) ;
#110 = PERSON_AND_ORGANIZATION ( #162, #131 ) ;
#111 = CARTESIAN_POINT ( 'NONE',  ( 6.249999999999996447, 6.250000000000001776, 1.000000000000000000 ) ) ;
#112 = LINE ( 'NONE', #82, #185 ) ;
#113 = PERSON_AND_ORGANIZATION ( #162, #131 ) ;
#114 = EDGE_CURVE ( 'NONE', #236, #91, #37, .T. ) ;
#115 =( NAMED_UNIT ( * ) PLANE_ANGLE_UNIT ( ) SI_UNIT ( $, .RADIAN. ) );
#116 = PRODUCT ( 'Web Model 13396_13396', 'Web Model 13396_13396', '', ( #190 ) ) ;
#117 = CARTESIAN_POINT ( 'NONE',  ( -6.250000000000003553, 6.250000000000001776, 0.000000000000000000 ) ) ;
#118 = APPROVAL_DATE_TIME ( #130, #34 ) ;
#119 = UNCERTAINTY_MEASURE_WITH_UNIT (LENGTH_MEASURE( 1.000000000000000082E-05 ), #26, 'distance_accuracy_value', 'NONE');
#120 = DIRECTION ( 'NONE',  ( 1.000000000000000000, 0.000000000000000000, 0.000000000000000000 ) ) ;
#121 = CARTESIAN_POINT ( 'NONE',  ( -6.250000000000003553, 6.250000000000001776, 1.000000000000000000 ) ) ;
#122 = EDGE_CURVE ( 'NONE', #166, #91, #40, .T. ) ;
#123 = PLANE ( 'NONE',  #78 ) ;
#124 = VERTEX_POINT ( 'NONE', #127 ) ;
#125 = LOCAL_TIME ( 16, 28, 21.00000000000000000, #69 ) ;
#126 = DIRECTION ( 'NONE',  ( 1.000000000000000000, 1.387778780781445676E-16, -0.000000000000000000 ) ) ;
#127 = CARTESIAN_POINT ( 'NONE',  ( 6.249999999999996447, 6.250000000000001776, 0.000000000000000000 ) ) ;
#128 = EDGE_CURVE ( 'NONE', #86, #166, #68, .T. ) ;
#129 = PRODUCT_DEFINITION_SHAPE ( 'NONE', 'NONE',  #109 ) ;
#130 = DATE_AND_TIME ( #67, #18 ) ;
#131 = ORGANIZATION ( 'UNSPECIFIED', 'UNSPECIFIED', '' ) ;
#132 = EDGE_CURVE ( 'NONE', #215, #164, #14, .T. ) ;
#133 = ADVANCED_FACE ( 'NONE', ( #3 ), #177, .T. ) ;
#134 = ORIENTED_EDGE ( 'NONE', *, *, #128, .T. ) ;
#135 = CARTESIAN_POINT ( 'NONE',  ( 0.000000000000000000, 0.000000000000000000, 1.000000000000000000 ) ) ;
#136 = DIRECTION ( 'NONE',  ( 0.000000000000000000, -0.000000000000000000, 1.000000000000000000 ) ) ;
#137 = APPROVAL_ROLE ( '' ) ;
#138 = CARTESIAN_POINT ( 'NONE',  ( 0.000000000000000000, 0.000000000000000000, 0.000000000000000000 ) ) ;
#139 = DIRECTION ( 'NONE',  ( -1.000000000000000000, -0.000000000000000000, -0.000000000000000000 ) ) ;
#140 = ORIENTED_EDGE ( 'NONE', *, *, #35, .T. ) ;
#141 = DIRECTION ( 'NONE',  ( 0.000000000000000000, -0.000000000000000000, -1.000000000000000000 ) ) ;
#142 = DESIGN_CONTEXT ( 'detailed design', #77, 'design' ) ;
#143 = DIRECTION ( 'NONE',  ( 1.387778780781445676E-16, -1.000000000000000000, 0.000000000000000000 ) ) ;
#144 = ORIENTED_EDGE ( 'NONE', *, *, #114, .F. ) ;
#145 = AXIS2_PLACEMENT_3D ( 'NONE', #16, #126, #17 ) ;
#146 = EDGE_LOOP ( 'NONE', ( #49, #223, #57, #171 ) ) ;
#147 = VECTOR ( 'NONE', #155, 1000.000000000000000 ) ;
#148 = VECTOR ( 'NONE', #201, 1000.000000000000000 ) ;
#149 = EDGE_LOOP ( 'NONE', ( #39, #55, #15, #102 ) ) ;
#150 = LOCAL_TIME ( 16, 28, 21.00000000000000000, #203 ) ;
#151 = EDGE_CURVE ( 'NONE', #226, #124, #180, .T. ) ;
#152 = COORDINATED_UNIVERSAL_TIME_OFFSET ( 5, 0, .BEHIND. ) ;
#153 = LINE ( 'NONE', #182, #101 ) ;
#154 = ADVANCED_FACE ( 'NONE', ( #46 ), #98, .F. ) ;
#155 = DIRECTION ( 'NONE',  ( 1.000000000000000000, 0.000000000000000000, 0.000000000000000000 ) ) ;
#156 = ADVANCED_FACE ( 'NONE', ( #235 ), #160, .F. ) ;
#157 = PERSON_AND_ORGANIZATION ( #162, #131 ) ;
#158 = EDGE_CURVE ( 'NONE', #215, #226, #54, .T. ) ;
#159 = CARTESIAN_POINT ( 'NONE',  ( -6.250000000000001776, -6.249999999999998224, 1.000000000000000000 ) ) ;
#160 = PLANE ( 'NONE',  #176 ) ;
#161 = CARTESIAN_POINT ( 'NONE',  ( -6.250000000000001776, -6.249999999999998224, 1.000000000000000000 ) ) ;
#162 = PERSON ( 'UNSPECIFIED', 'UNSPECIFIED', 'UNSPECIFIED', ('UNSPECIFIED'), ('UNSPECIFIED'), ('UNSPECIFIED') ) ;
#163 = DIRECTION ( 'NONE',  ( -0.000000000000000000, -0.000000000000000000, -1.000000000000000000 ) ) ;
#164 = VERTEX_POINT ( 'NONE', #111 ) ;
#165 = PLANE ( 'NONE',  #205 ) ;
#166 = VERTEX_POINT ( 'NONE', #117 ) ;
#167 = DATE_TIME_ROLE ( 'creation_date' ) ;
#168 = PERSON_AND_ORGANIZATION ( #162, #131 ) ;
#169 = CLOSED_SHELL ( 'NONE', ( #72, #8, #4, #156, #133, #154 ) ) ;
#170 = COORDINATED_UNIVERSAL_TIME_OFFSET ( 5, 0, .BEHIND. ) ;
#171 = ORIENTED_EDGE ( 'NONE', *, *, #25, .T. ) ;
#172 = EDGE_LOOP ( 'NONE', ( #197, #188, #140, #81 ) ) ;
#173 = APPROVAL_PERSON_ORGANIZATION ( #168, #34, #24 ) ;
#174 = DATE_TIME_ROLE ( 'classification_date' ) ;
#175 = PERSON_AND_ORGANIZATION_ROLE ( 'creator' ) ;
#176 = AXIS2_PLACEMENT_3D ( 'NONE', #159, #60, #136 ) ;
#177 = PLANE ( 'NONE',  #100 ) ;
#178 = CARTESIAN_POINT ( 'NONE',  ( 6.249999999999996447, 6.250000000000001776, 1.000000000000000000 ) ) ;
#179 = CARTESIAN_POINT ( 'NONE',  ( 6.249999999999996447, 6.250000000000001776, 1.000000000000000000 ) ) ;
#180 = LINE ( 'NONE', #61, #71 ) ;
#181 = VECTOR ( 'NONE', #196, 1000.000000000000000 ) ;
#182 = CARTESIAN_POINT ( 'NONE',  ( -6.250000000000003553, 6.250000000000001776, 1.000000000000000000 ) ) ;
#183 = EDGE_CURVE ( 'NONE', #91, #226, #193, .T. ) ;
#184 = LINE ( 'NONE', #161, #147 ) ;
#185 = VECTOR ( 'NONE', #139, 1000.000000000000000 ) ;
#186 = CC_DESIGN_PERSON_AND_ORGANIZATION_ASSIGNMENT ( #110, #175, ( #109 ) ) ;
#187 = ORIENTED_EDGE ( 'NONE', *, *, #158, .F. ) ;
#188 = ORIENTED_EDGE ( 'NONE', *, *, #90, .T. ) ;
#189 = VECTOR ( 'NONE', #59, 1000.000000000000000 ) ;
#190 = MECHANICAL_CONTEXT ( 'NONE', #43, 'mechanical' ) ;
#191 = CARTESIAN_POINT ( 'NONE',  ( 6.249999999999998224, -6.249999999999998224, 1.000000000000000000 ) ) ;
#192 = EDGE_CURVE ( 'NONE', #124, #166, #30, .T. ) ;
#193 = LINE ( 'NONE', #44, #5 ) ;
#194 = DIRECTION ( 'NONE',  ( 1.387778780781445676E-16, -1.000000000000000000, 0.000000000000000000 ) ) ;
#195 = CALENDAR_DATE ( 2021, 30, 6 ) ;
#196 = DIRECTION ( 'NONE',  ( 1.387778780781445676E-16, -1.000000000000000000, 0.000000000000000000 ) ) ;
#197 = ORIENTED_EDGE ( 'NONE', *, *, #132, .T. ) ;
#198 = LINE ( 'NONE', #179, #148 ) ;
#199 = CALENDAR_DATE ( 2021, 30, 6 ) ;
#200 = DIRECTION ( 'NONE',  ( -1.000000000000000000, -1.387778780781445676E-16, 0.000000000000000000 ) ) ;
#201 = DIRECTION ( 'NONE',  ( -0.000000000000000000, -0.000000000000000000, -1.000000000000000000 ) ) ;
#202 = ORIENTED_EDGE ( 'NONE', *, *, #122, .T. ) ;
#203 = COORDINATED_UNIVERSAL_TIME_OFFSET ( 5, 0, .BEHIND. ) ;
#204 = PRODUCT_RELATED_PRODUCT_CATEGORY ( 'detail', '', ( #116 ) ) ;
#205 = AXIS2_PLACEMENT_3D ( 'NONE', #64, #200, #143 ) ;
#206 = CC_DESIGN_APPROVAL ( #34, ( #70 ) ) ;
#207 = APPLICATION_PROTOCOL_DEFINITION ( 'international standard', 'config_control_design', 1994, #77 ) ;
#208 = COORDINATED_UNIVERSAL_TIME_OFFSET ( 5, 0, .BEHIND. ) ;
#209 = PERSON_AND_ORGANIZATION_ROLE ( 'design_owner' ) ;
#210 = CARTESIAN_POINT ( 'NONE',  ( 6.249999999999998224, -6.249999999999998224, 1.000000000000000000 ) ) ;
#211 = SHAPE_DEFINITION_REPRESENTATION ( #129, #104 ) ;
#212 = PERSON_AND_ORGANIZATION ( #162, #131 ) ;
#213 = APPROVAL ( #95, 'UNSPECIFIED' ) ;
#214 = APPROVAL_DATE_TIME ( #51, #213 ) ;
#215 = VERTEX_POINT ( 'NONE', #191 ) ;
#216 = APPROVAL_DATE_TIME ( #232, #38 ) ;
#217 = EDGE_LOOP ( 'NONE', ( #219, #187, #21, #36 ) ) ;
#218 = APPROVAL_PERSON_ORGANIZATION ( #32, #213, #137 ) ;
#219 = ORIENTED_EDGE ( 'NONE', *, *, #183, .T. ) ;
#220 = PERSON_AND_ORGANIZATION_ROLE ( 'classification_officer' ) ;
#221 = EDGE_CURVE ( 'NONE', #236, #215, #184, .T. ) ;
#222 = DATE_AND_TIME ( #195, #229 ) ;
#223 = ORIENTED_EDGE ( 'NONE', *, *, #128, .F. ) ;
#224 = DIRECTION ( 'NONE',  ( -0.000000000000000000, 0.000000000000000000, 1.000000000000000000 ) ) ;
#225 = VECTOR ( 'NONE', #163, 1000.000000000000000 ) ;
#226 = VERTEX_POINT ( 'NONE', #79 ) ;
#227 = DIRECTION ( 'NONE',  ( -0.000000000000000000, -0.000000000000000000, -1.000000000000000000 ) ) ;
#228 = CARTESIAN_POINT ( 'NONE',  ( -6.250000000000003553, 6.250000000000001776, 0.000000000000000000 ) ) ;
#229 = LOCAL_TIME ( 16, 28, 21.00000000000000000, #170 ) ;
#230 = CC_DESIGN_SECURITY_CLASSIFICATION ( #70, ( #65 ) ) ;
#231 = VECTOR ( 'NONE', #97, 1000.000000000000000 ) ;
#232 = DATE_AND_TIME ( #199, #125 ) ;
#233 = CARTESIAN_POINT ( 'NONE',  ( -6.250000000000001776, -6.249999999999998224, 1.000000000000000000 ) ) ;
#234 = EDGE_LOOP ( 'NONE', ( #2, #50, #27, #74 ) ) ;
#235 = FACE_OUTER_BOUND ( 'NONE', #217, .T. ) ;
#236 = VERTEX_POINT ( 'NONE', #93 ) ;
#237 = CC_DESIGN_APPROVAL ( #213, ( #109 ) ) ;
ENDSEC;
END-ISO-10303-21;
