ISO-10303-21;
HEADER;
FILE_DESCRIPTION (( 'STEP AP203' ),
    '1' );
FILE_NAME ('Web Model 46690.STEP',
    '2017-01-31T15:19:22',
    ( '' ),
    ( '' ),
    'SwSTEP 2.0',
    'SolidWorks 2016',
    '' );
FILE_SCHEMA (( 'CONFIG_CONTROL_DESIGN' ));
ENDSEC;

DATA;
#1 = LINE ( 'NONE', #23, #194 ) ;
#2 = APPROVAL ( #12, 'UNSPECIFIED' ) ;
#3 = APPROVAL_PERSON_ORGANIZATION ( #43, #2, #121 ) ;
#4 = FACE_OUTER_BOUND ( 'NONE', #125, .T. ) ;
#5 = DIRECTION ( 'NONE',  ( 1.000000000000000000, 0.0000000000000000000, 0.0000000000000000000 ) ) ;
#6 = DIRECTION ( 'NONE',  ( 0.0000000000000000000, -0.0000000000000000000, 1.000000000000000000 ) ) ;
#7 = ORIENTED_EDGE ( 'NONE', *, *, #117, .T. ) ;
#8 = CARTESIAN_POINT ( 'NONE',  ( -9.000000000000007100, 15.00000000000000400, 0.0000000000000000000 ) ) ;
#9 = DATE_AND_TIME ( #129, #50 ) ;
#10 = AXIS2_PLACEMENT_3D ( 'NONE', #208, #54, #89 ) ;
#11 = LOCAL_TIME ( 10, 19, 22.00000000000000000, #206 ) ;
#12 = APPROVAL_STATUS ( 'not_yet_approved' ) ;
#13 = ORIENTED_EDGE ( 'NONE', *, *, #190, .T. ) ;
#14 = APPROVAL_DATE_TIME ( #9, #178 ) ;
#15 = DIRECTION ( 'NONE',  ( -0.0000000000000000000, -0.0000000000000000000, -1.000000000000000000 ) ) ;
#16 = PLANE ( 'NONE',  #52 ) ;
#17 = CC_DESIGN_APPROVAL ( #2, ( #26 ) ) ;
#18 = VECTOR ( 'NONE', #15, 1000.000000000000000 ) ;
#19 = PLANE ( 'NONE',  #44 ) ;
#20 = ORIENTED_EDGE ( 'NONE', *, *, #140, .F. ) ;
#21 = LOCAL_TIME ( 10, 19, 22.00000000000000000, #170 ) ;
#22 = EDGE_CURVE ( 'NONE', #235, #237, #154, .T. ) ;
#23 = CARTESIAN_POINT ( 'NONE',  ( -9.000000000000003600, -14.99999999999999600, 2.000000000000000000 ) ) ;
#24 = VERTEX_POINT ( 'NONE', #228 ) ;
#25 = UNCERTAINTY_MEASURE_WITH_UNIT (LENGTH_MEASURE( 1.000000000000000100E-005 ), #27, 'distance_accuracy_value', 'NONE');
#26 = SECURITY_CLASSIFICATION ( '', '', #218 ) ;
#27 =( LENGTH_UNIT ( ) NAMED_UNIT ( * ) SI_UNIT ( .MILLI., .METRE. ) );
#28 = ORIENTED_EDGE ( 'NONE', *, *, #22, .F. ) ;
#29 = APPROVAL_STATUS ( 'not_yet_approved' ) ;
#30 = PLANE ( 'NONE',  #167 ) ;
#31 = PERSON ( 'UNSPECIFIED', 'UNSPECIFIED', 'UNSPECIFIED', ('UNSPECIFIED'), ('UNSPECIFIED'), ('UNSPECIFIED') ) ;
#32 = LINE ( 'NONE', #35, #18 ) ;
#33 = LINE ( 'NONE', #94, #64 ) ;
#34 = LOCAL_TIME ( 10, 19, 22.00000000000000000, #151 ) ;
#35 = CARTESIAN_POINT ( 'NONE',  ( -9.000000000000007100, 15.00000000000000400, 2.000000000000000000 ) ) ;
#36 = AXIS2_PLACEMENT_3D ( 'NONE', #187, #115, #6 ) ;
#37 = APPLICATION_PROTOCOL_DEFINITION ( 'international standard', 'config_control_design', 1994, #224 ) ;
#38 = CC_DESIGN_PERSON_AND_ORGANIZATION_ASSIGNMENT ( #91, #161, ( #26 ) ) ;
#39 = EDGE_LOOP ( 'NONE', ( #88, #120, #222, #13 ) ) ;
#40 = ORIENTED_EDGE ( 'NONE', *, *, #55, .T. ) ;
#41 = DIRECTION ( 'NONE',  ( -0.0000000000000000000, -0.0000000000000000000, -1.000000000000000000 ) ) ;
#42 = EDGE_LOOP ( 'NONE', ( #197, #202, #168, #78 ) ) ;
#43 = PERSON_AND_ORGANIZATION ( #31, #159 ) ;
#44 = AXIS2_PLACEMENT_3D ( 'NONE', #146, #169, #126 ) ;
#45 = LINE ( 'NONE', #211, #76 ) ;
#46 = DATE_TIME_ROLE ( 'creation_date' ) ;
#47 = DIRECTION ( 'NONE',  ( 1.000000000000000000, 1.156482317317871700E-016, -0.0000000000000000000 ) ) ;
#48 = APPROVAL_DATE_TIME ( #107, #2 ) ;
#49 = ORIENTED_EDGE ( 'NONE', *, *, #214, .F. ) ;
#50 = LOCAL_TIME ( 10, 19, 22.00000000000000000, #86 ) ;
#51 = ORIENTED_EDGE ( 'NONE', *, *, #61, .T. ) ;
#52 = AXIS2_PLACEMENT_3D ( 'NONE', #149, #203, #84 ) ;
#53 = ORIENTED_EDGE ( 'NONE', *, *, #180, .F. ) ;
#54 = DIRECTION ( 'NONE',  ( -0.0000000000000000000, 0.0000000000000000000, 1.000000000000000000 ) ) ;
#55 = EDGE_CURVE ( 'NONE', #216, #235, #45, .T. ) ;
#56 = DIRECTION ( 'NONE',  ( -0.0000000000000000000, -0.0000000000000000000, -1.000000000000000000 ) ) ;
#57 = PERSON_AND_ORGANIZATION_ROLE ( 'creator' ) ;
#58 = APPROVAL_ROLE ( '' ) ;
#59 = VERTEX_POINT ( 'NONE', #71 ) ;
#60 = PERSON_AND_ORGANIZATION_ROLE ( 'design_supplier' ) ;
#61 = EDGE_CURVE ( 'NONE', #24, #59, #226, .T. ) ;
#62 = VERTEX_POINT ( 'NONE', #92 ) ;
#63 = CC_DESIGN_PERSON_AND_ORGANIZATION_ASSIGNMENT ( #144, #57, ( #95 ) ) ;
#64 = VECTOR ( 'NONE', #213, 1000.000000000000000 ) ;
#65 = EDGE_CURVE ( 'NONE', #24, #111, #1, .T. ) ;
#66 = SHAPE_DEFINITION_REPRESENTATION ( #82, #176 ) ;
#67 = ADVANCED_FACE ( 'NONE', ( #212 ), #136, .T. ) ;
#68 = CARTESIAN_POINT ( 'NONE',  ( -9.000000000000003600, -14.99999999999999600, 2.000000000000000000 ) ) ;
#69 = PRODUCT_RELATED_PRODUCT_CATEGORY ( 'detail', '', ( #192 ) ) ;
#70 = CALENDAR_DATE ( 2017, 31, 1 ) ;
#71 = CARTESIAN_POINT ( 'NONE',  ( 8.999999999999996400, -14.99999999999999600, 2.000000000000000000 ) ) ;
#72 = PERSON_AND_ORGANIZATION ( #31, #159 ) ;
#73 = DIRECTION ( 'NONE',  ( 1.156482317317871500E-016, -1.000000000000000000, 0.0000000000000000000 ) ) ;
#74 = LOCAL_TIME ( 10, 19, 22.00000000000000000, #199 ) ;
#75 = DIRECTION ( 'NONE',  ( 1.000000000000000000, 0.0000000000000000000, 0.0000000000000000000 ) ) ;
#76 = VECTOR ( 'NONE', #156, 1000.000000000000000 ) ;
#77 = VECTOR ( 'NONE', #5, 1000.000000000000000 ) ;
#78 = ORIENTED_EDGE ( 'NONE', *, *, #65, .T. ) ;
#79 = DATE_AND_TIME ( #174, #74 ) ;
#80 = AXIS2_PLACEMENT_3D ( 'NONE', #142, #103, #75 ) ;
#81 = VECTOR ( 'NONE', #73, 1000.000000000000000 ) ;
#82 = PRODUCT_DEFINITION_SHAPE ( 'NONE', 'NONE',  #95 ) ;
#83 = EDGE_CURVE ( 'NONE', #111, #186, #137, .T. ) ;
#84 = DIRECTION ( 'NONE',  ( 0.0000000000000000000, -0.0000000000000000000, -1.000000000000000000 ) ) ;
#85 = ORIENTED_EDGE ( 'NONE', *, *, #153, .T. ) ;
#86 = COORDINATED_UNIVERSAL_TIME_OFFSET ( 5, 0, .BEHIND. ) ;
#87 = LINE ( 'NONE', #164, #200 ) ;
#88 = ORIENTED_EDGE ( 'NONE', *, *, #140, .T. ) ;
#89 = DIRECTION ( 'NONE',  ( 1.000000000000000000, 0.0000000000000000000, 0.0000000000000000000 ) ) ;
#90 = ORIENTED_EDGE ( 'NONE', *, *, #83, .F. ) ;
#91 = PERSON_AND_ORGANIZATION ( #31, #159 ) ;
#92 = CARTESIAN_POINT ( 'NONE',  ( -9.000000000000007100, 15.00000000000000400, 2.000000000000000000 ) ) ;
#93 = DESIGN_CONTEXT ( 'detailed design', #191, 'design' ) ;
#94 = CARTESIAN_POINT ( 'NONE',  ( 8.999999999999992900, 15.00000000000000400, 2.000000000000000000 ) ) ;
#95 = PRODUCT_DEFINITION ( 'UNKNOWN', '', #116, #93 ) ;
#96 = FACE_OUTER_BOUND ( 'NONE', #171, .T. ) ;
#97 = CARTESIAN_POINT ( 'NONE',  ( 8.999999999999996400, -14.99999999999999600, 0.0000000000000000000 ) ) ;
#98 = DIRECTION ( 'NONE',  ( -1.000000000000000000, -0.0000000000000000000, -0.0000000000000000000 ) ) ;
#99 = MECHANICAL_CONTEXT ( 'NONE', #224, 'mechanical' ) ;
#100 = CC_DESIGN_SECURITY_CLASSIFICATION ( #26, ( #116 ) ) ;
#101 = ORIENTED_EDGE ( 'NONE', *, *, #148, .T. ) ;
#102 = PERSON_AND_ORGANIZATION ( #31, #159 ) ;
#103 = DIRECTION ( 'NONE',  ( 0.0000000000000000000, 0.0000000000000000000, 1.000000000000000000 ) ) ;
#104 = CC_DESIGN_PERSON_AND_ORGANIZATION_ASSIGNMENT ( #227, #196, ( #192 ) ) ;
#105 = CALENDAR_DATE ( 2017, 31, 1 ) ;
#106 = MANIFOLD_SOLID_BREP ( 'Extrude1', #114 ) ;
#107 = DATE_AND_TIME ( #236, #34 ) ;
#108 = LINE ( 'NONE', #135, #205 ) ;
#109 = CC_DESIGN_PERSON_AND_ORGANIZATION_ASSIGNMENT ( #102, #60, ( #116 ) ) ;
#110 = APPROVAL ( #29, 'UNSPECIFIED' ) ;
#111 = VERTEX_POINT ( 'NONE', #172 ) ;
#112 = ADVANCED_FACE ( 'NONE', ( #173 ), #184, .F. ) ;
#113 = DIRECTION ( 'NONE',  ( -1.000000000000000000, -0.0000000000000000000, -0.0000000000000000000 ) ) ;
#114 = CLOSED_SHELL ( 'NONE', ( #130, #183, #132, #112, #67, #155 ) ) ;
#115 = DIRECTION ( 'NONE',  ( 0.0000000000000000000, 1.000000000000000000, 0.0000000000000000000 ) ) ;
#116 = PRODUCT_DEFINITION_FORMATION_WITH_SPECIFIED_SOURCE ( 'ANY', '', #192, .NOT_KNOWN. ) ;
#117 = EDGE_CURVE ( 'NONE', #59, #216, #33, .T. ) ;
#118 = CARTESIAN_POINT ( 'NONE',  ( 8.999999999999992900, 15.00000000000000400, 2.000000000000000000 ) ) ;
#119 = PERSON_AND_ORGANIZATION_ROLE ( 'creator' ) ;
#120 = ORIENTED_EDGE ( 'NONE', *, *, #55, .F. ) ;
#121 = APPROVAL_ROLE ( '' ) ;
#122 = FACE_OUTER_BOUND ( 'NONE', #39, .T. ) ;
#123 = CC_DESIGN_DATE_AND_TIME_ASSIGNMENT ( #185, #46, ( #95 ) ) ;
#124 = APPROVAL_PERSON_ORGANIZATION ( #158, #178, #143 ) ;
#125 = EDGE_LOOP ( 'NONE', ( #20, #90, #53, #28 ) ) ;
#126 = DIRECTION ( 'NONE',  ( 1.000000000000000000, 0.0000000000000000000, 0.0000000000000000000 ) ) ;
#127 = VECTOR ( 'NONE', #98, 1000.000000000000000 ) ;
#128 = CC_DESIGN_DATE_AND_TIME_ASSIGNMENT ( #79, #162, ( #26 ) ) ;
#129 = CALENDAR_DATE ( 2017, 31, 1 ) ;
#130 = ADVANCED_FACE ( 'NONE', ( #122 ), #230, .F. ) ;
#131 = VECTOR ( 'NONE', #113, 1000.000000000000000 ) ;
#132 = ADVANCED_FACE ( 'NONE', ( #134 ), #30, .F. ) ;
#133 = CARTESIAN_POINT ( 'NONE',  ( -9.000000000000003600, -14.99999999999999600, 0.0000000000000000000 ) ) ;
#134 = FACE_OUTER_BOUND ( 'NONE', #209, .T. ) ;
#135 = CARTESIAN_POINT ( 'NONE',  ( -9.000000000000007100, 15.00000000000000400, 2.000000000000000000 ) ) ;
#136 = PLANE ( 'NONE',  #10 ) ;
#137 = LINE ( 'NONE', #133, #179 ) ;
#138 = ORIENTED_EDGE ( 'NONE', *, *, #180, .T. ) ;
#139 = CARTESIAN_POINT ( 'NONE',  ( 8.999999999999992900, 15.00000000000000400, 2.000000000000000000 ) ) ;
#140 = EDGE_CURVE ( 'NONE', #186, #235, #177, .T. ) ;
#141 =( NAMED_UNIT ( * ) PLANE_ANGLE_UNIT ( ) SI_UNIT ( $, .RADIAN. ) );
#142 = CARTESIAN_POINT ( 'NONE',  ( 0.0000000000000000000, 0.0000000000000000000, 0.0000000000000000000 ) ) ;
#143 = APPROVAL_ROLE ( '' ) ;
#144 = PERSON_AND_ORGANIZATION ( #31, #159 ) ;
#145 = CARTESIAN_POINT ( 'NONE',  ( 8.999999999999992900, 15.00000000000000400, 0.0000000000000000000 ) ) ;
#146 = CARTESIAN_POINT ( 'NONE',  ( 8.999999999999996400, -14.99999999999999600, 0.0000000000000000000 ) ) ;
#147 = LINE ( 'NONE', #8, #81 ) ;
#148 = EDGE_CURVE ( 'NONE', #216, #62, #152, .T. ) ;
#149 = CARTESIAN_POINT ( 'NONE',  ( -9.000000000000007100, 15.00000000000000400, 2.000000000000000000 ) ) ;
#150 = ORIENTED_EDGE ( 'NONE', *, *, #153, .F. ) ;
#151 = COORDINATED_UNIVERSAL_TIME_OFFSET ( 5, 0, .BEHIND. ) ;
#152 = LINE ( 'NONE', #215, #127 ) ;
#153 = EDGE_CURVE ( 'NONE', #62, #237, #32, .T. ) ;
#154 = LINE ( 'NONE', #207, #131 ) ;
#155 = ADVANCED_FACE ( 'NONE', ( #4 ), #19, .F. ) ;
#156 = DIRECTION ( 'NONE',  ( -0.0000000000000000000, -0.0000000000000000000, -1.000000000000000000 ) ) ;
#157 = APPROVAL_DATE_TIME ( #166, #110 ) ;
#158 = PERSON_AND_ORGANIZATION ( #31, #159 ) ;
#159 = ORGANIZATION ( 'UNSPECIFIED', 'UNSPECIFIED', '' ) ;
#160 =( GEOMETRIC_REPRESENTATION_CONTEXT ( 3 ) GLOBAL_UNCERTAINTY_ASSIGNED_CONTEXT ( ( #25 ) ) GLOBAL_UNIT_ASSIGNED_CONTEXT ( ( #27, #141, #193 ) ) REPRESENTATION_CONTEXT ( 'NONE', 'WORKASPACE' ) );
#161 = PERSON_AND_ORGANIZATION_ROLE ( 'classification_officer' ) ;
#162 = DATE_TIME_ROLE ( 'classification_date' ) ;
#163 = ORIENTED_EDGE ( 'NONE', *, *, #22, .T. ) ;
#164 = CARTESIAN_POINT ( 'NONE',  ( 8.999999999999996400, -14.99999999999999600, 2.000000000000000000 ) ) ;
#165 = CARTESIAN_POINT ( 'NONE',  ( -9.000000000000007100, 15.00000000000000400, 2.000000000000000000 ) ) ;
#166 = DATE_AND_TIME ( #70, #21 ) ;
#167 = AXIS2_PLACEMENT_3D ( 'NONE', #165, #47, #198 ) ;
#168 = ORIENTED_EDGE ( 'NONE', *, *, #61, .F. ) ;
#169 = DIRECTION ( 'NONE',  ( -0.0000000000000000000, 0.0000000000000000000, 1.000000000000000000 ) ) ;
#170 = COORDINATED_UNIVERSAL_TIME_OFFSET ( 5, 0, .BEHIND. ) ;
#171 = EDGE_LOOP ( 'NONE', ( #163, #150, #182, #40 ) ) ;
#172 = CARTESIAN_POINT ( 'NONE',  ( -9.000000000000003600, -14.99999999999999600, 0.0000000000000000000 ) ) ;
#173 = FACE_OUTER_BOUND ( 'NONE', #42, .T. ) ;
#174 = CALENDAR_DATE ( 2017, 31, 1 ) ;
#175 = AXIS2_PLACEMENT_3D ( 'NONE', #139, #232, #188 ) ;
#176 = ADVANCED_BREP_SHAPE_REPRESENTATION ( 'Web Model 46690', ( #106, #80 ), #160 ) ;
#177 = LINE ( 'NONE', #195, #223 ) ;
#178 = APPROVAL ( #234, 'UNSPECIFIED' ) ;
#179 = VECTOR ( 'NONE', #210, 1000.000000000000000 ) ;
#180 = EDGE_CURVE ( 'NONE', #237, #111, #147, .T. ) ;
#181 = EDGE_LOOP ( 'NONE', ( #7, #101, #221, #51 ) ) ;
#182 = ORIENTED_EDGE ( 'NONE', *, *, #148, .F. ) ;
#183 = ADVANCED_FACE ( 'NONE', ( #96 ), #16, .F. ) ;
#184 = PLANE ( 'NONE',  #36 ) ;
#185 = DATE_AND_TIME ( #105, #11 ) ;
#186 = VERTEX_POINT ( 'NONE', #97 ) ;
#187 = CARTESIAN_POINT ( 'NONE',  ( -9.000000000000003600, -14.99999999999999600, 2.000000000000000000 ) ) ;
#188 = DIRECTION ( 'NONE',  ( 1.156482317317871700E-016, -1.000000000000000000, 0.0000000000000000000 ) ) ;
#189 = ORIENTED_EDGE ( 'NONE', *, *, #65, .F. ) ;
#190 = EDGE_CURVE ( 'NONE', #59, #186, #87, .T. ) ;
#191 = APPLICATION_CONTEXT ( 'configuration controlled 3d designs of mechanical parts and assemblies' ) ;
#192 = PRODUCT ( 'Web Model 46690', 'Web Model 46690', '', ( #99 ) ) ;
#193 =( NAMED_UNIT ( * ) SI_UNIT ( $, .STERADIAN. ) SOLID_ANGLE_UNIT ( ) );
#194 = VECTOR ( 'NONE', #41, 1000.000000000000000 ) ;
#195 = CARTESIAN_POINT ( 'NONE',  ( 8.999999999999992900, 15.00000000000000400, 0.0000000000000000000 ) ) ;
#196 = PERSON_AND_ORGANIZATION_ROLE ( 'design_owner' ) ;
#197 = ORIENTED_EDGE ( 'NONE', *, *, #83, .T. ) ;
#198 = DIRECTION ( 'NONE',  ( -1.156482317317871700E-016, 1.000000000000000000, 0.0000000000000000000 ) ) ;
#199 = COORDINATED_UNIVERSAL_TIME_OFFSET ( 5, 0, .BEHIND. ) ;
#200 = VECTOR ( 'NONE', #56, 1000.000000000000000 ) ;
#201 = CC_DESIGN_APPROVAL ( #110, ( #95 ) ) ;
#202 = ORIENTED_EDGE ( 'NONE', *, *, #190, .F. ) ;
#203 = DIRECTION ( 'NONE',  ( 0.0000000000000000000, -1.000000000000000000, 0.0000000000000000000 ) ) ;
#204 = PERSON_AND_ORGANIZATION ( #31, #159 ) ;
#205 = VECTOR ( 'NONE', #231, 1000.000000000000000 ) ;
#206 = COORDINATED_UNIVERSAL_TIME_OFFSET ( 5, 0, .BEHIND. ) ;
#207 = CARTESIAN_POINT ( 'NONE',  ( -9.000000000000007100, 15.00000000000000400, 0.0000000000000000000 ) ) ;
#208 = CARTESIAN_POINT ( 'NONE',  ( 8.999999999999996400, -14.99999999999999600, 2.000000000000000000 ) ) ;
#209 = EDGE_LOOP ( 'NONE', ( #138, #189, #49, #85 ) ) ;
#210 = DIRECTION ( 'NONE',  ( 1.000000000000000000, 0.0000000000000000000, 0.0000000000000000000 ) ) ;
#211 = CARTESIAN_POINT ( 'NONE',  ( 8.999999999999992900, 15.00000000000000400, 2.000000000000000000 ) ) ;
#212 = FACE_OUTER_BOUND ( 'NONE', #181, .T. ) ;
#213 = DIRECTION ( 'NONE',  ( -1.156482317317871500E-016, 1.000000000000000000, -0.0000000000000000000 ) ) ;
#214 = EDGE_CURVE ( 'NONE', #62, #24, #108, .T. ) ;
#215 = CARTESIAN_POINT ( 'NONE',  ( -9.000000000000007100, 15.00000000000000400, 2.000000000000000000 ) ) ;
#216 = VERTEX_POINT ( 'NONE', #118 ) ;
#217 = DIRECTION ( 'NONE',  ( -1.156482317317871500E-016, 1.000000000000000000, -0.0000000000000000000 ) ) ;
#218 = SECURITY_CLASSIFICATION_LEVEL ( 'unclassified' ) ;
#219 = CC_DESIGN_APPROVAL ( #178, ( #116 ) ) ;
#220 = CARTESIAN_POINT ( 'NONE',  ( -9.000000000000007100, 15.00000000000000400, 0.0000000000000000000 ) ) ;
#221 = ORIENTED_EDGE ( 'NONE', *, *, #214, .T. ) ;
#222 = ORIENTED_EDGE ( 'NONE', *, *, #117, .F. ) ;
#223 = VECTOR ( 'NONE', #217, 1000.000000000000000 ) ;
#224 = APPLICATION_CONTEXT ( 'configuration controlled 3d designs of mechanical parts and assemblies' ) ;
#225 = APPROVAL_PERSON_ORGANIZATION ( #72, #110, #58 ) ;
#226 = LINE ( 'NONE', #68, #77 ) ;
#227 = PERSON_AND_ORGANIZATION ( #31, #159 ) ;
#228 = CARTESIAN_POINT ( 'NONE',  ( -9.000000000000003600, -14.99999999999999600, 2.000000000000000000 ) ) ;
#229 = CC_DESIGN_PERSON_AND_ORGANIZATION_ASSIGNMENT ( #204, #119, ( #116 ) ) ;
#230 = PLANE ( 'NONE',  #175 ) ;
#231 = DIRECTION ( 'NONE',  ( 1.156482317317871500E-016, -1.000000000000000000, 0.0000000000000000000 ) ) ;
#232 = DIRECTION ( 'NONE',  ( -1.000000000000000000, -1.156482317317871700E-016, 0.0000000000000000000 ) ) ;
#233 = APPLICATION_PROTOCOL_DEFINITION ( 'international standard', 'config_control_design', 1994, #191 ) ;
#234 = APPROVAL_STATUS ( 'not_yet_approved' ) ;
#235 = VERTEX_POINT ( 'NONE', #145 ) ;
#236 = CALENDAR_DATE ( 2017, 31, 1 ) ;
#237 = VERTEX_POINT ( 'NONE', #220 ) ;
ENDSEC;
END-ISO-10303-21;
