ISO-10303-21;
HEADER;
FILE_DESCRIPTION (( 'STEP AP203' ),
    '1' );
FILE_NAME ('Web Model 19837_19870.step',
    '2022-04-06T15:07:16',
    ( 'WC' ),
    ( 'Windows Central' ),
    'SwSTEP 2.0',
    'SolidWorks 2021',
    '' );
FILE_SCHEMA (( 'CONFIG_CONTROL_DESIGN' ));
ENDSEC;

DATA;
#1 = CARTESIAN_POINT ( 'NONE',  ( 0.000000000000000000, 0.000000000000000000, 5.000000000000000000 ) ) ;
#2 = DIRECTION ( 'NONE',  ( -1.000000000000000000, 0.000000000000000000, 0.000000000000000000 ) ) ;
#3 = PRODUCT_DEFINITION_FORMATION_WITH_SPECIFIED_SOURCE ( 'ANY', '', #160, .NOT_KNOWN. ) ;
#4 = CARTESIAN_POINT ( 'NONE',  ( -12.50000000000000000, 0.000000000000000000, 5.000000000000000000 ) ) ;
#5 = CC_DESIGN_PERSON_AND_ORGANIZATION_ASSIGNMENT ( #68, #131, ( #65 ) ) ;
#6 = ORIENTED_EDGE ( 'NONE', *, *, #18, .T. ) ;
#7 = CARTESIAN_POINT ( 'NONE',  ( -12.50000000000000000, 0.000000000000000000, 5.000000000000000000 ) ) ;
#8 = DATE_AND_TIME ( #166, #164 ) ;
#9 = PERSON_AND_ORGANIZATION ( #51, #42 ) ;
#10 = DIRECTION ( 'NONE',  ( -0.000000000000000000, -0.000000000000000000, -1.000000000000000000 ) ) ;
#11 = DIRECTION ( 'NONE',  ( 0.000000000000000000, 0.000000000000000000, 1.000000000000000000 ) ) ;
#12 = CALENDAR_DATE ( 2022, 6, 4 ) ;
#13 = PERSON_AND_ORGANIZATION ( #51, #42 ) ;
#14 = AXIS2_PLACEMENT_3D ( 'NONE', #103, #91, #33 ) ;
#15 = PERSON_AND_ORGANIZATION ( #51, #42 ) ;
#16 = CARTESIAN_POINT ( 'NONE',  ( 0.000000000000000000, 0.000000000000000000, 0.000000000000000000 ) ) ;
#17 = AXIS2_PLACEMENT_3D ( 'NONE', #1, #56, #2 ) ;
#18 = EDGE_CURVE ( 'NONE', #94, #105, #132, .T. ) ;
#19 = ORIENTED_EDGE ( 'NONE', *, *, #162, .F. ) ;
#20 = ORIENTED_EDGE ( 'NONE', *, *, #32, .T. ) ;
#21 = APPROVAL_PERSON_ORGANIZATION ( #102, #167, #88 ) ;
#22 = APPLICATION_PROTOCOL_DEFINITION ( 'international standard', 'config_control_design', 1994, #128 ) ;
#23 = DIRECTION ( 'NONE',  ( 0.000000000000000000, 0.000000000000000000, 1.000000000000000000 ) ) ;
#24 = APPROVAL ( #158, 'UNSPECIFIED' ) ;
#25 = AXIS2_PLACEMENT_3D ( 'NONE', #50, #47, #44 ) ;
#26 = FACE_OUTER_BOUND ( 'NONE', #169, .T. ) ;
#27 = PERSON_AND_ORGANIZATION_ROLE ( 'classification_officer' ) ;
#28 = APPLICATION_CONTEXT ( 'configuration controlled 3d designs of mechanical parts and assemblies' ) ;
#29 = ORIENTED_EDGE ( 'NONE', *, *, #95, .T. ) ;
#30 = DATE_TIME_ROLE ( 'creation_date' ) ;
#31 = ORIENTED_EDGE ( 'NONE', *, *, #135, .T. ) ;
#32 = EDGE_CURVE ( 'NONE', #34, #93, #97, .T. ) ;
#33 = DIRECTION ( 'NONE',  ( 1.000000000000000000, 0.000000000000000000, 0.000000000000000000 ) ) ;
#34 = VERTEX_POINT ( 'NONE', #119 ) ;
#35 = DIRECTION ( 'NONE',  ( 0.000000000000000000, 0.000000000000000000, 1.000000000000000000 ) ) ;
#36 =( NAMED_UNIT ( * ) PLANE_ANGLE_UNIT ( ) SI_UNIT ( $, .RADIAN. ) );
#37 = AXIS2_PLACEMENT_3D ( 'NONE', #16, #35, #106 ) ;
#38 = DESIGN_CONTEXT ( 'detailed design', #28, 'design' ) ;
#39 = PLANE ( 'NONE',  #117 ) ;
#40 = CC_DESIGN_PERSON_AND_ORGANIZATION_ASSIGNMENT ( #15, #27, ( #168 ) ) ;
#41 = APPROVAL_PERSON_ORGANIZATION ( #152, #116, #156 ) ;
#42 = ORGANIZATION ( 'UNSPECIFIED', 'UNSPECIFIED', '' ) ;
#43 = CC_DESIGN_PERSON_AND_ORGANIZATION_ASSIGNMENT ( #66, #136, ( #3 ) ) ;
#44 = DIRECTION ( 'NONE',  ( 1.000000000000000000, 0.000000000000000000, 0.000000000000000000 ) ) ;
#45 = DATE_AND_TIME ( #165, #76 ) ;
#46 = CC_DESIGN_DATE_AND_TIME_ASSIGNMENT ( #154, #49, ( #168 ) ) ;
#47 = DIRECTION ( 'NONE',  ( 0.000000000000000000, 0.000000000000000000, 1.000000000000000000 ) ) ;
#48 = APPROVAL_DATE_TIME ( #8, #116 ) ;
#49 = DATE_TIME_ROLE ( 'classification_date' ) ;
#50 = CARTESIAN_POINT ( 'NONE',  ( 0.000000000000000000, 0.000000000000000000, 0.000000000000000000 ) ) ;
#51 = PERSON ( 'UNSPECIFIED', 'UNSPECIFIED', 'UNSPECIFIED', ('UNSPECIFIED'), ('UNSPECIFIED'), ('UNSPECIFIED') ) ;
#52 =( LENGTH_UNIT ( ) NAMED_UNIT ( * ) SI_UNIT ( .MILLI., .METRE. ) );
#53 = DIRECTION ( 'NONE',  ( 1.000000000000000000, 0.000000000000000000, -0.000000000000000000 ) ) ;
#54 = APPLICATION_PROTOCOL_DEFINITION ( 'international standard', 'config_control_design', 1994, #28 ) ;
#55 = LOCAL_TIME ( 11, 7, 16.00000000000000000, #77 ) ;
#56 = DIRECTION ( 'NONE',  ( -0.000000000000000000, -0.000000000000000000, -1.000000000000000000 ) ) ;
#57 = ORIENTED_EDGE ( 'NONE', *, *, #101, .F. ) ;
#58 = EDGE_LOOP ( 'NONE', ( #134, #57 ) ) ;
#59 = ORIENTED_EDGE ( 'NONE', *, *, #95, .F. ) ;
#60 = CARTESIAN_POINT ( 'NONE',  ( 0.000000000000000000, 0.000000000000000000, 0.000000000000000000 ) ) ;
#61 = AXIS2_PLACEMENT_3D ( 'NONE', #60, #11, #171 ) ;
#62 = APPROVAL_DATE_TIME ( #74, #24 ) ;
#63 = CYLINDRICAL_SURFACE ( 'NONE', #80, 12.50000000000000000 ) ;
#64 = COORDINATED_UNIVERSAL_TIME_OFFSET ( 5, 0, .BEHIND. ) ;
#65 = PRODUCT_DEFINITION ( 'UNKNOWN', '', #3, #38 ) ;
#66 = PERSON_AND_ORGANIZATION ( #51, #42 ) ;
#67 = ORIENTED_EDGE ( 'NONE', *, *, #135, .F. ) ;
#68 = PERSON_AND_ORGANIZATION ( #51, #42 ) ;
#69 = APPROVAL_STATUS ( 'not_yet_approved' ) ;
#70 = CC_DESIGN_SECURITY_CLASSIFICATION ( #168, ( #3 ) ) ;
#71 = CIRCLE ( 'NONE', #173, 12.50000000000000000 ) ;
#72 = CC_DESIGN_PERSON_AND_ORGANIZATION_ASSIGNMENT ( #129, #125, ( #160 ) ) ;
#73 = COORDINATED_UNIVERSAL_TIME_OFFSET ( 5, 0, .BEHIND. ) ;
#74 = DATE_AND_TIME ( #159, #120 ) ;
#75 = MECHANICAL_CONTEXT ( 'NONE', #128, 'mechanical' ) ;
#76 = LOCAL_TIME ( 11, 7, 16.00000000000000000, #175 ) ;
#77 = COORDINATED_UNIVERSAL_TIME_OFFSET ( 5, 0, .BEHIND. ) ;
#78 = ORIENTED_EDGE ( 'NONE', *, *, #162, .T. ) ;
#79 = CC_DESIGN_APPROVAL ( #24, ( #65 ) ) ;
#80 = AXIS2_PLACEMENT_3D ( 'NONE', #85, #170, #157 ) ;
#81 = EDGE_LOOP ( 'NONE', ( #59, #137, #31, #20 ) ) ;
#82 = ADVANCED_FACE ( 'NONE', ( #89 ), #90, .F. ) ;
#83 = DIRECTION ( 'NONE',  ( 0.000000000000000000, 0.000000000000000000, 1.000000000000000000 ) ) ;
#84 = DIRECTION ( 'NONE',  ( 1.000000000000000000, 0.000000000000000000, 0.000000000000000000 ) ) ;
#85 = CARTESIAN_POINT ( 'NONE',  ( 0.000000000000000000, 0.000000000000000000, 5.000000000000000000 ) ) ;
#86 =( NAMED_UNIT ( * ) SI_UNIT ( $, .STERADIAN. ) SOLID_ANGLE_UNIT ( ) );
#87 = DATE_AND_TIME ( #145, #55 ) ;
#88 = APPROVAL_ROLE ( '' ) ;
#89 = FACE_OUTER_BOUND ( 'NONE', #58, .T. ) ;
#90 = PLANE ( 'NONE',  #37 ) ;
#91 = DIRECTION ( 'NONE',  ( 0.000000000000000000, 0.000000000000000000, 1.000000000000000000 ) ) ;
#92 = ADVANCED_FACE ( 'NONE', ( #133 ), #118, .T. ) ;
#93 = VERTEX_POINT ( 'NONE', #121 ) ;
#94 = VERTEX_POINT ( 'NONE', #4 ) ;
#95 = EDGE_CURVE ( 'NONE', #105, #93, #113, .T. ) ;
#96 = CARTESIAN_POINT ( 'NONE',  ( 0.000000000000000000, 0.000000000000000000, 5.000000000000000000 ) ) ;
#97 = CIRCLE ( 'NONE', #25, 12.50000000000000000 ) ;
#98 = APPROVAL_ROLE ( '' ) ;
#99 = DIRECTION ( 'NONE',  ( 1.000000000000000000, 0.000000000000000000, 0.000000000000000000 ) ) ;
#100 = CIRCLE ( 'NONE', #61, 12.50000000000000000 ) ;
#101 = EDGE_CURVE ( 'NONE', #93, #34, #100, .T. ) ;
#102 = PERSON_AND_ORGANIZATION ( #51, #42 ) ;
#103 = CARTESIAN_POINT ( 'NONE',  ( 0.000000000000000000, 0.000000000000000000, 5.000000000000000000 ) ) ;
#104 = CLOSED_SHELL ( 'NONE', ( #150, #92, #126, #82 ) ) ;
#105 = VERTEX_POINT ( 'NONE', #110 ) ;
#106 = DIRECTION ( 'NONE',  ( 1.000000000000000000, 0.000000000000000000, -0.000000000000000000 ) ) ;
#107 = SHAPE_DEFINITION_REPRESENTATION ( #111, #114 ) ;
#108 = LINE ( 'NONE', #7, #163 ) ;
#109 = UNCERTAINTY_MEASURE_WITH_UNIT (LENGTH_MEASURE( 1.000000000000000082E-05 ), #52, 'distance_accuracy_value', 'NONE');
#110 = CARTESIAN_POINT ( 'NONE',  ( 12.50000000000000000, 1.530808498934191521E-15, 5.000000000000000000 ) ) ;
#111 = PRODUCT_DEFINITION_SHAPE ( 'NONE', 'NONE',  #65 ) ;
#112 = CC_DESIGN_PERSON_AND_ORGANIZATION_ASSIGNMENT ( #13, #144, ( #3 ) ) ;
#113 = LINE ( 'NONE', #127, #139 ) ;
#114 = ADVANCED_BREP_SHAPE_REPRESENTATION ( 'Web Model 19837_19870', ( #174, #123 ), #149 ) ;
#115 = SECURITY_CLASSIFICATION_LEVEL ( 'unclassified' ) ;
#116 = APPROVAL ( #69, 'UNSPECIFIED' ) ;
#117 = AXIS2_PLACEMENT_3D ( 'NONE', #161, #83, #53 ) ;
#118 = CYLINDRICAL_SURFACE ( 'NONE', #17, 12.50000000000000000 ) ;
#119 = CARTESIAN_POINT ( 'NONE',  ( -12.50000000000000000, 0.000000000000000000, 0.000000000000000000 ) ) ;
#120 = LOCAL_TIME ( 11, 7, 16.00000000000000000, #73 ) ;
#121 = CARTESIAN_POINT ( 'NONE',  ( 12.50000000000000000, 1.530808498934191521E-15, 0.000000000000000000 ) ) ;
#122 = COORDINATED_UNIVERSAL_TIME_OFFSET ( 5, 0, .BEHIND. ) ;
#123 = AXIS2_PLACEMENT_3D ( 'NONE', #141, #23, #84 ) ;
#124 = DIRECTION ( 'NONE',  ( 0.000000000000000000, 0.000000000000000000, 1.000000000000000000 ) ) ;
#125 = PERSON_AND_ORGANIZATION_ROLE ( 'design_owner' ) ;
#126 = ADVANCED_FACE ( 'NONE', ( #26 ), #39, .T. ) ;
#127 = CARTESIAN_POINT ( 'NONE',  ( 12.50000000000000000, 1.530808498934191521E-15, 5.000000000000000000 ) ) ;
#128 = APPLICATION_CONTEXT ( 'configuration controlled 3d designs of mechanical parts and assemblies' ) ;
#129 = PERSON_AND_ORGANIZATION ( #51, #42 ) ;
#130 = APPROVAL_STATUS ( 'not_yet_approved' ) ;
#131 = PERSON_AND_ORGANIZATION_ROLE ( 'creator' ) ;
#132 = CIRCLE ( 'NONE', #14, 12.50000000000000000 ) ;
#133 = FACE_OUTER_BOUND ( 'NONE', #81, .T. ) ;
#134 = ORIENTED_EDGE ( 'NONE', *, *, #32, .F. ) ;
#135 = EDGE_CURVE ( 'NONE', #94, #34, #108, .T. ) ;
#136 = PERSON_AND_ORGANIZATION_ROLE ( 'creator' ) ;
#137 = ORIENTED_EDGE ( 'NONE', *, *, #18, .F. ) ;
#138 = LOCAL_TIME ( 11, 7, 16.00000000000000000, #64 ) ;
#139 = VECTOR ( 'NONE', #10, 1000.000000000000000 ) ;
#140 = CC_DESIGN_APPROVAL ( #167, ( #3 ) ) ;
#141 = CARTESIAN_POINT ( 'NONE',  ( 0.000000000000000000, 0.000000000000000000, 0.000000000000000000 ) ) ;
#142 = FACE_OUTER_BOUND ( 'NONE', #155, .T. ) ;
#143 = PRODUCT_RELATED_PRODUCT_CATEGORY ( 'detail', '', ( #160 ) ) ;
#144 = PERSON_AND_ORGANIZATION_ROLE ( 'design_supplier' ) ;
#145 = CALENDAR_DATE ( 2022, 6, 4 ) ;
#146 = APPROVAL_DATE_TIME ( #87, #167 ) ;
#147 = CC_DESIGN_DATE_AND_TIME_ASSIGNMENT ( #45, #30, ( #65 ) ) ;
#148 = APPROVAL_PERSON_ORGANIZATION ( #9, #24, #98 ) ;
#149 =( GEOMETRIC_REPRESENTATION_CONTEXT ( 3 ) GLOBAL_UNCERTAINTY_ASSIGNED_CONTEXT ( ( #109 ) ) GLOBAL_UNIT_ASSIGNED_CONTEXT ( ( #52, #36, #86 ) ) REPRESENTATION_CONTEXT ( 'NONE', 'WORKASPACE' ) );
#150 = ADVANCED_FACE ( 'NONE', ( #142 ), #63, .T. ) ;
#151 = ORIENTED_EDGE ( 'NONE', *, *, #101, .T. ) ;
#152 = PERSON_AND_ORGANIZATION ( #51, #42 ) ;
#153 = CC_DESIGN_APPROVAL ( #116, ( #168 ) ) ;
#154 = DATE_AND_TIME ( #12, #138 ) ;
#155 = EDGE_LOOP ( 'NONE', ( #19, #29, #151, #67 ) ) ;
#156 = APPROVAL_ROLE ( '' ) ;
#157 = DIRECTION ( 'NONE',  ( -1.000000000000000000, 0.000000000000000000, 0.000000000000000000 ) ) ;
#158 = APPROVAL_STATUS ( 'not_yet_approved' ) ;
#159 = CALENDAR_DATE ( 2022, 6, 4 ) ;
#160 = PRODUCT ( 'Web Model 19837_19870', 'Web Model 19837_19870', '', ( #75 ) ) ;
#161 = CARTESIAN_POINT ( 'NONE',  ( 0.000000000000000000, 0.000000000000000000, 5.000000000000000000 ) ) ;
#162 = EDGE_CURVE ( 'NONE', #105, #94, #71, .T. ) ;
#163 = VECTOR ( 'NONE', #172, 1000.000000000000000 ) ;
#164 = LOCAL_TIME ( 11, 7, 16.00000000000000000, #122 ) ;
#165 = CALENDAR_DATE ( 2022, 6, 4 ) ;
#166 = CALENDAR_DATE ( 2022, 6, 4 ) ;
#167 = APPROVAL ( #130, 'UNSPECIFIED' ) ;
#168 = SECURITY_CLASSIFICATION ( '', '', #115 ) ;
#169 = EDGE_LOOP ( 'NONE', ( #6, #78 ) ) ;
#170 = DIRECTION ( 'NONE',  ( -0.000000000000000000, -0.000000000000000000, -1.000000000000000000 ) ) ;
#171 = DIRECTION ( 'NONE',  ( 1.000000000000000000, 0.000000000000000000, 0.000000000000000000 ) ) ;
#172 = DIRECTION ( 'NONE',  ( -0.000000000000000000, -0.000000000000000000, -1.000000000000000000 ) ) ;
#173 = AXIS2_PLACEMENT_3D ( 'NONE', #96, #124, #99 ) ;
#174 = MANIFOLD_SOLID_BREP ( 'Boss-Extrude1', #104 ) ;
#175 = COORDINATED_UNIVERSAL_TIME_OFFSET ( 5, 0, .BEHIND. ) ;
ENDSEC;
END-ISO-10303-21;
