ISO-10303-21;
HEADER;
FILE_DESCRIPTION (( 'STEP AP203' ),
    '1' );
FILE_NAME ('Web Model 47568_48581.step',
    '2017-04-26T17:12:39',
    ( '' ),
    ( '' ),
    'SwSTEP 2.0',
    'SolidWorks 2016',
    '' );
FILE_SCHEMA (( 'CONFIG_CONTROL_DESIGN' ));
ENDSEC;

DATA;
#1 = VERTEX_POINT ( 'NONE', #273 ) ;
#2 = CARTESIAN_POINT ( 'NONE',  ( -17.50000000000000000, 0.0000000000000000000, -17.50000000000000000 ) ) ;
#3 = LINE ( 'NONE', #27, #269 ) ;
#4 = EDGE_LOOP ( 'NONE', ( #225, #158, #314 ) ) ;
#5 = DIRECTION ( 'NONE',  ( 0.0000000000000000000, 1.000000000000000000, -0.0000000000000000000 ) ) ;
#6 = DIRECTION ( 'NONE',  ( -1.000000000000000000, 0.0000000000000000000, 0.0000000000000000000 ) ) ;
#7 = LINE ( 'NONE', #53, #263 ) ;
#8 = LINE ( 'NONE', #60, #52 ) ;
#9 = AXIS2_PLACEMENT_3D ( 'NONE', #48, #185, #172 ) ;
#10 = DIRECTION ( 'NONE',  ( -0.0000000000000000000, 0.0000000000000000000, 1.000000000000000000 ) ) ;
#11 = LOCAL_TIME ( 13, 12, 39.00000000000000000, #306 ) ;
#12 = VECTOR ( 'NONE', #125, 1000.000000000000000 ) ;
#13 = ORIENTED_EDGE ( 'NONE', *, *, #88, .F. ) ;
#14 = ORIENTED_EDGE ( 'NONE', *, *, #107, .F. ) ;
#15 = DIRECTION ( 'NONE',  ( -0.0000000000000000000, -0.0000000000000000000, -1.000000000000000000 ) ) ;
#16 = CARTESIAN_POINT ( 'NONE',  ( -17.50000000000000000, 0.0000000000000000000, 17.50000000000000000 ) ) ;
#17 = CARTESIAN_POINT ( 'NONE',  ( 17.50000000000000000, 17.50000000000000000, -17.50000000000000000 ) ) ;
#18 = CC_DESIGN_PERSON_AND_ORGANIZATION_ASSIGNMENT ( #319, #178, ( #127 ) ) ;
#19 = CALENDAR_DATE ( 2017, 26, 4 ) ;
#20 = PERSON_AND_ORGANIZATION ( #187, #44 ) ;
#21 = CARTESIAN_POINT ( 'NONE',  ( 0.0000000000000000000, 0.0000000000000000000, -17.50000000000000000 ) ) ;
#22 = ORIENTED_EDGE ( 'NONE', *, *, #100, .F. ) ;
#23 = LOCAL_TIME ( 13, 12, 39.00000000000000000, #219 ) ;
#24 = CARTESIAN_POINT ( 'NONE',  ( -0.0000000000000000000, 0.0000000000000000000, -17.50000000000000000 ) ) ;
#25 = AXIS2_PLACEMENT_3D ( 'NONE', #161, #10, #176 ) ;
#26 = EDGE_LOOP ( 'NONE', ( #261, #227, #22 ) ) ;
#27 = CARTESIAN_POINT ( 'NONE',  ( 17.50000000000000000, 0.0000000000000000000, 17.50000000000000000 ) ) ;
#28 = CARTESIAN_POINT ( 'NONE',  ( -17.50000000000000000, 17.50000000000000000, 17.50000000000000000 ) ) ;
#29 = PLANE ( 'NONE',  #9 ) ;
#30 = CC_DESIGN_PERSON_AND_ORGANIZATION_ASSIGNMENT ( #164, #191, ( #259 ) ) ;
#31 = VECTOR ( 'NONE', #108, 1000.000000000000100 ) ;
#32 = DIRECTION ( 'NONE',  ( 0.7071067811865474600, -0.7071067811865474600, 0.0000000000000000000 ) ) ;
#33 = ORIENTED_EDGE ( 'NONE', *, *, #64, .F. ) ;
#34 = VECTOR ( 'NONE', #15, 1000.000000000000000 ) ;
#35 = AXIS2_PLACEMENT_3D ( 'NONE', #87, #215, #90 ) ;
#36 = ADVANCED_BREP_SHAPE_REPRESENTATION ( 'Web Model 47568_48581', ( #86, #258, #284 ), #255 ) ;
#37 =( NAMED_UNIT ( * ) SI_UNIT ( $, .STERADIAN. ) SOLID_ANGLE_UNIT ( ) );
#38 = ADVANCED_FACE ( 'NONE', ( #274 ), #264, .T. ) ;
#39 = AXIS2_PLACEMENT_3D ( 'NONE', #16, #6, #312 ) ;
#40 = DIRECTION ( 'NONE',  ( -0.7071067811865474600, 0.7071067811865474600, 0.0000000000000000000 ) ) ;
#41 = CARTESIAN_POINT ( 'NONE',  ( -17.50000000000000000, -17.50000000000000000, -17.50000000000000000 ) ) ;
#42 = LINE ( 'NONE', #270, #241 ) ;
#43 = LINE ( 'NONE', #56, #137 ) ;
#44 = ORGANIZATION ( 'UNSPECIFIED', 'UNSPECIFIED', '' ) ;
#45 = FACE_OUTER_BOUND ( 'NONE', #296, .T. ) ;
#46 = DIRECTION ( 'NONE',  ( 0.7071067811865475700, 0.7071067811865475700, -0.0000000000000000000 ) ) ;
#47 = ADVANCED_FACE ( 'NONE', ( #160 ), #69, .F. ) ;
#48 = CARTESIAN_POINT ( 'NONE',  ( 0.0000000000000000000, 0.0000000000000000000, 17.50000000000000000 ) ) ;
#49 = APPROVAL_DATE_TIME ( #132, #138 ) ;
#50 = CARTESIAN_POINT ( 'NONE',  ( -17.50000000000000000, 17.50000000000000000, 17.50000000000000000 ) ) ;
#51 = APPROVAL_PERSON_ORGANIZATION ( #146, #102, #126 ) ;
#52 = VECTOR ( 'NONE', #143, 1000.000000000000000 ) ;
#53 = CARTESIAN_POINT ( 'NONE',  ( 0.0000000000000000000, 17.50000000000000000, 17.50000000000000000 ) ) ;
#54 = PLANE ( 'NONE',  #177 ) ;
#55 = DIRECTION ( 'NONE',  ( -1.000000000000000000, 0.0000000000000000000, 0.0000000000000000000 ) ) ;
#56 = CARTESIAN_POINT ( 'NONE',  ( 17.50000000000000000, -17.50000000000000000, 17.50000000000000000 ) ) ;
#57 = CLOSED_SHELL ( 'NONE', ( #47, #316, #38, #133, #148 ) ) ;
#58 = VERTEX_POINT ( 'NONE', #166 ) ;
#59 = VECTOR ( 'NONE', #5, 1000.000000000000000 ) ;
#60 = CARTESIAN_POINT ( 'NONE',  ( 0.0000000000000000000, -17.50000000000000000, -17.50000000000000000 ) ) ;
#61 = VERTEX_POINT ( 'NONE', #28 ) ;
#62 = VERTEX_POINT ( 'NONE', #193 ) ;
#63 = FACE_OUTER_BOUND ( 'NONE', #4, .T. ) ;
#64 = EDGE_CURVE ( 'NONE', #66, #321, #281, .T. ) ;
#65 = APPROVAL_PERSON_ORGANIZATION ( #276, #138, #260 ) ;
#66 = VERTEX_POINT ( 'NONE', #41 ) ;
#67 = ORIENTED_EDGE ( 'NONE', *, *, #135, .T. ) ;
#68 = CARTESIAN_POINT ( 'NONE',  ( -17.50000000000000000, -17.50000000000000000, 17.50000000000000000 ) ) ;
#69 = PLANE ( 'NONE',  #81 ) ;
#70 = LINE ( 'NONE', #318, #256 ) ;
#71 = ADVANCED_FACE ( 'NONE', ( #262 ), #136, .T. ) ;
#72 = AXIS2_PLACEMENT_3D ( 'NONE', #279, #222, #139 ) ;
#73 = CARTESIAN_POINT ( 'NONE',  ( 17.50000000000000000, 0.0000000000000000000, -17.50000000000000000 ) ) ;
#74 = PRODUCT_DEFINITION_SHAPE ( 'NONE', 'NONE',  #259 ) ;
#75 = DIRECTION ( 'NONE',  ( -0.7071067811865474600, 0.7071067811865474600, 0.0000000000000000000 ) ) ;
#76 = EDGE_LOOP ( 'NONE', ( #13, #129, #67, #297 ) ) ;
#77 = PLANE ( 'NONE',  #236 ) ;
#78 = ORIENTED_EDGE ( 'NONE', *, *, #223, .T. ) ;
#79 = CARTESIAN_POINT ( 'NONE',  ( -17.50000000000000000, 17.50000000000000000, 17.50000000000000000 ) ) ;
#80 = LINE ( 'NONE', #79, #34 ) ;
#81 = AXIS2_PLACEMENT_3D ( 'NONE', #202, #46, #75 ) ;
#82 = ADVANCED_FACE ( 'NONE', ( #45 ), #213, .T. ) ;
#83 = DATE_AND_TIME ( #275, #247 ) ;
#84 = AXIS2_PLACEMENT_3D ( 'NONE', #116, #128, #165 ) ;
#85 = DATE_AND_TIME ( #168, #23 ) ;
#86 = MANIFOLD_SOLID_BREP ( 'Boss-Extrude2', #186 ) ;
#87 = CARTESIAN_POINT ( 'NONE',  ( 0.0000000000000000000, -17.50000000000000000, 17.50000000000000000 ) ) ;
#88 = EDGE_CURVE ( 'NONE', #1, #199, #291, .T. ) ;
#89 = DIRECTION ( 'NONE',  ( 0.0000000000000000000, 0.0000000000000000000, 1.000000000000000000 ) ) ;
#90 = DIRECTION ( 'NONE',  ( 0.0000000000000000000, -0.0000000000000000000, 1.000000000000000000 ) ) ;
#91 = CARTESIAN_POINT ( 'NONE',  ( 0.0000000000000000000, -17.50000000000000000, 17.50000000000000000 ) ) ;
#92 = DATE_AND_TIME ( #19, #175 ) ;
#93 = DIRECTION ( 'NONE',  ( 1.000000000000000000, 0.0000000000000000000, 0.0000000000000000000 ) ) ;
#94 = VECTOR ( 'NONE', #245, 1000.000000000000000 ) ;
#95 = EDGE_CURVE ( 'NONE', #58, #66, #315, .T. ) ;
#96 = PERSON_AND_ORGANIZATION ( #187, #44 ) ;
#97 = EDGE_CURVE ( 'NONE', #99, #199, #42, .T. ) ;
#98 = DIRECTION ( 'NONE',  ( 1.000000000000000000, 0.0000000000000000000, 0.0000000000000000000 ) ) ;
#99 = VERTEX_POINT ( 'NONE', #188 ) ;
#100 = EDGE_CURVE ( 'NONE', #66, #277, #8, .T. ) ;
#101 = DIRECTION ( 'NONE',  ( 0.7071067811865474600, -0.7071067811865474600, 0.0000000000000000000 ) ) ;
#102 = APPROVAL ( #211, 'UNSPECIFIED' ) ;
#103 = ORIENTED_EDGE ( 'NONE', *, *, #115, .T. ) ;
#104 = ORIENTED_EDGE ( 'NONE', *, *, #118, .F. ) ;
#105 = VERTEX_POINT ( 'NONE', #144 ) ;
#106 = VERTEX_POINT ( 'NONE', #300 ) ;
#107 = EDGE_CURVE ( 'NONE', #106, #99, #3, .T. ) ;
#108 = DIRECTION ( 'NONE',  ( 0.7071067811865474600, -0.7071067811865474600, 0.0000000000000000000 ) ) ;
#109 = CC_DESIGN_DATE_AND_TIME_ASSIGNMENT ( #92, #307, ( #259 ) ) ;
#110 = FACE_OUTER_BOUND ( 'NONE', #112, .T. ) ;
#111 = APPROVAL_ROLE ( '' ) ;
#112 = EDGE_LOOP ( 'NONE', ( #151, #272, #233, #117 ) ) ;
#113 = CALENDAR_DATE ( 2017, 26, 4 ) ;
#114 = DIRECTION ( 'NONE',  ( 0.0000000000000000000, 1.000000000000000000, -0.0000000000000000000 ) ) ;
#115 = EDGE_CURVE ( 'NONE', #131, #277, #122, .T. ) ;
#116 = CARTESIAN_POINT ( 'NONE',  ( 0.0000000000000000000, 0.0000000000000000000, 17.50000000000000000 ) ) ;
#117 = ORIENTED_EDGE ( 'NONE', *, *, #95, .T. ) ;
#118 = EDGE_CURVE ( 'NONE', #105, #321, #80, .T. ) ;
#119 = ORIENTED_EDGE ( 'NONE', *, *, #150, .T. ) ;
#120 = APPLICATION_PROTOCOL_DEFINITION ( 'international standard', 'config_control_design', 1994, #290 ) ;
#121 = DIRECTION ( 'NONE',  ( 1.000000000000000000, 0.0000000000000000000, 0.0000000000000000000 ) ) ;
#122 = LINE ( 'NONE', #267, #94 ) ;
#123 = CC_DESIGN_PERSON_AND_ORGANIZATION_ASSIGNMENT ( #20, #163, ( #232 ) ) ;
#124 = LINE ( 'NONE', #73, #311 ) ;
#125 = DIRECTION ( 'NONE',  ( 1.000000000000000000, 0.0000000000000000000, 0.0000000000000000000 ) ) ;
#126 = APPROVAL_ROLE ( '' ) ;
#127 = PRODUCT_DEFINITION_FORMATION_WITH_SPECIFIED_SOURCE ( 'ANY', '', #232, .NOT_KNOWN. ) ;
#128 = DIRECTION ( 'NONE',  ( -0.0000000000000000000, 0.0000000000000000000, 1.000000000000000000 ) ) ;
#129 = ORIENTED_EDGE ( 'NONE', *, *, #229, .F. ) ;
#130 = DATE_AND_TIME ( #113, #209 ) ;
#131 = VERTEX_POINT ( 'NONE', #183 ) ;
#132 = DATE_AND_TIME ( #268, #11 ) ;
#133 = ADVANCED_FACE ( 'NONE', ( #289 ), #29, .T. ) ;
#134 = DIRECTION ( 'NONE',  ( -0.0000000000000000000, 0.0000000000000000000, 1.000000000000000000 ) ) ;
#135 = EDGE_CURVE ( 'NONE', #61, #99, #7, .T. ) ;
#136 = PLANE ( 'NONE',  #84 ) ;
#137 = VECTOR ( 'NONE', #169, 1000.000000000000000 ) ;
#138 = APPROVAL ( #157, 'UNSPECIFIED' ) ;
#139 = DIRECTION ( 'NONE',  ( 0.0000000000000000000, -0.0000000000000000000, 1.000000000000000000 ) ) ;
#140 = ORIENTED_EDGE ( 'NONE', *, *, #231, .F. ) ;
#141 = DIRECTION ( 'NONE',  ( 0.7071067811865474600, -0.7071067811865474600, 0.0000000000000000000 ) ) ;
#142 = VECTOR ( 'NONE', #32, 1000.000000000000100 ) ;
#143 = DIRECTION ( 'NONE',  ( 1.000000000000000000, 0.0000000000000000000, 0.0000000000000000000 ) ) ;
#144 = CARTESIAN_POINT ( 'NONE',  ( -17.50000000000000000, 17.50000000000000000, 17.50000000000000000 ) ) ;
#145 = APPROVAL_STATUS ( 'not_yet_approved' ) ;
#146 = PERSON_AND_ORGANIZATION ( #187, #44 ) ;
#147 = PLANE ( 'NONE',  #252 ) ;
#148 = ADVANCED_FACE ( 'NONE', ( #63 ), #207, .F. ) ;
#149 = ORIENTED_EDGE ( 'NONE', *, *, #218, .T. ) ;
#150 = EDGE_CURVE ( 'NONE', #62, #199, #124, .T. ) ;
#151 = ORIENTED_EDGE ( 'NONE', *, *, #100, .T. ) ;
#152 = VECTOR ( 'NONE', #239, 1000.000000000000000 ) ;
#153 = DIRECTION ( 'NONE',  ( -0.0000000000000000000, -0.0000000000000000000, -1.000000000000000000 ) ) ;
#154 = DATE_TIME_ROLE ( 'classification_date' ) ;
#155 = CARTESIAN_POINT ( 'NONE',  ( 17.50000000000000000, 0.0000000000000000000, 17.50000000000000000 ) ) ;
#156 = APPROVAL_PERSON_ORGANIZATION ( #210, #182, #111 ) ;
#157 = APPROVAL_STATUS ( 'not_yet_approved' ) ;
#158 = ORIENTED_EDGE ( 'NONE', *, *, #88, .T. ) ;
#159 = VECTOR ( 'NONE', #317, 1000.000000000000000 ) ;
#160 = FACE_OUTER_BOUND ( 'NONE', #204, .T. ) ;
#161 = CARTESIAN_POINT ( 'NONE',  ( 0.0000000000000000000, 0.0000000000000000000, -17.50000000000000000 ) ) ;
#162 = LINE ( 'NONE', #91, #12 ) ;
#163 = PERSON_AND_ORGANIZATION_ROLE ( 'design_owner' ) ;
#164 = PERSON_AND_ORGANIZATION ( #187, #44 ) ;
#165 = DIRECTION ( 'NONE',  ( 1.000000000000000000, 0.0000000000000000000, 0.0000000000000000000 ) ) ;
#166 = CARTESIAN_POINT ( 'NONE',  ( -17.50000000000000000, -17.50000000000000000, 17.50000000000000000 ) ) ;
#167 = ORIENTED_EDGE ( 'NONE', *, *, #223, .F. ) ;
#168 = CALENDAR_DATE ( 2017, 26, 4 ) ;
#169 = DIRECTION ( 'NONE',  ( -0.0000000000000000000, -0.0000000000000000000, -1.000000000000000000 ) ) ;
#170 = CARTESIAN_POINT ( 'NONE',  ( -17.50000000000000000, 17.50000000000000000, -17.50000000000000000 ) ) ;
#171 = EDGE_CURVE ( 'NONE', #1, #62, #280, .T. ) ;
#172 = DIRECTION ( 'NONE',  ( 1.000000000000000000, 0.0000000000000000000, 0.0000000000000000000 ) ) ;
#173 = ORIENTED_EDGE ( 'NONE', *, *, #192, .F. ) ;
#174 = ORIENTED_EDGE ( 'NONE', *, *, #97, .F. ) ;
#175 = LOCAL_TIME ( 13, 12, 39.00000000000000000, #305 ) ;
#176 = DIRECTION ( 'NONE',  ( 1.000000000000000000, 0.0000000000000000000, 0.0000000000000000000 ) ) ;
#177 = AXIS2_PLACEMENT_3D ( 'NONE', #206, #287, #40 ) ;
#178 = PERSON_AND_ORGANIZATION_ROLE ( 'design_supplier' ) ;
#179 = ORIENTED_EDGE ( 'NONE', *, *, #192, .T. ) ;
#180 = ORIENTED_EDGE ( 'NONE', *, *, #231, .T. ) ;
#181 =( LENGTH_UNIT ( ) NAMED_UNIT ( * ) SI_UNIT ( .MILLI., .METRE. ) );
#182 = APPROVAL ( #145, 'UNSPECIFIED' ) ;
#183 = CARTESIAN_POINT ( 'NONE',  ( 17.50000000000000000, -17.50000000000000000, 17.50000000000000000 ) ) ;
#184 = APPLICATION_CONTEXT ( 'configuration controlled 3d designs of mechanical parts and assemblies' ) ;
#185 = DIRECTION ( 'NONE',  ( -0.0000000000000000000, 0.0000000000000000000, 1.000000000000000000 ) ) ;
#186 = CLOSED_SHELL ( 'NONE', ( #82, #194, #208, #71, #201 ) ) ;
#187 = PERSON ( 'UNSPECIFIED', 'UNSPECIFIED', 'UNSPECIFIED', ('UNSPECIFIED'), ('UNSPECIFIED'), ('UNSPECIFIED') ) ;
#188 = CARTESIAN_POINT ( 'NONE',  ( 17.50000000000000000, 17.50000000000000000, 17.50000000000000000 ) ) ;
#189 = EDGE_CURVE ( 'NONE', #321, #277, #214, .T. ) ;
#190 = VECTOR ( 'NONE', #101, 1000.000000000000100 ) ;
#191 = PERSON_AND_ORGANIZATION_ROLE ( 'creator' ) ;
#192 = EDGE_CURVE ( 'NONE', #106, #62, #43, .T. ) ;
#193 = CARTESIAN_POINT ( 'NONE',  ( 17.50000000000000000, -17.50000000000000000, -17.50000000000000000 ) ) ;
#194 = ADVANCED_FACE ( 'NONE', ( #110 ), #195, .F. ) ;
#195 = PLANE ( 'NONE',  #35 ) ;
#196 = EDGE_LOOP ( 'NONE', ( #226, #104, #298, #103 ) ) ;
#197 = FACE_OUTER_BOUND ( 'NONE', #320, .T. ) ;
#198 = FACE_OUTER_BOUND ( 'NONE', #196, .T. ) ;
#199 = VERTEX_POINT ( 'NONE', #17 ) ;
#200 = CARTESIAN_POINT ( 'NONE',  ( 0.0000000000000000000, 0.0000000000000000000, 17.50000000000000000 ) ) ;
#201 = ADVANCED_FACE ( 'NONE', ( #237 ), #147, .F. ) ;
#202 = CARTESIAN_POINT ( 'NONE',  ( 0.0000000000000000000, 0.0000000000000000000, 17.50000000000000000 ) ) ;
#203 = ORIENTED_EDGE ( 'NONE', *, *, #107, .T. ) ;
#204 = EDGE_LOOP ( 'NONE', ( #299, #173, #167, #250 ) ) ;
#205 = DIRECTION ( 'NONE',  ( 1.000000000000000000, 0.0000000000000000000, 0.0000000000000000000 ) ) ;
#206 = CARTESIAN_POINT ( 'NONE',  ( 0.0000000000000000000, 0.0000000000000000000, 17.50000000000000000 ) ) ;
#207 = PLANE ( 'NONE',  #25 ) ;
#208 = ADVANCED_FACE ( 'NONE', ( #198 ), #54, .T. ) ;
#209 = LOCAL_TIME ( 13, 12, 39.00000000000000000, #254 ) ;
#210 = PERSON_AND_ORGANIZATION ( #187, #44 ) ;
#211 = APPROVAL_STATUS ( 'not_yet_approved' ) ;
#212 = ORIENTED_EDGE ( 'NONE', *, *, #221, .F. ) ;
#213 = PLANE ( 'NONE',  #39 ) ;
#214 = LINE ( 'NONE', #240, #190 ) ;
#215 = DIRECTION ( 'NONE',  ( 0.0000000000000000000, 1.000000000000000000, 0.0000000000000000000 ) ) ;
#216 = DIRECTION ( 'NONE',  ( -0.0000000000000000000, -0.0000000000000000000, -1.000000000000000000 ) ) ;
#217 = ORIENTED_EDGE ( 'NONE', *, *, #135, .F. ) ;
#218 = EDGE_CURVE ( 'NONE', #58, #131, #162, .T. ) ;
#219 = COORDINATED_UNIVERSAL_TIME_OFFSET ( 5, 0, .BEHIND. ) ;
#220 = APPROVAL_DATE_TIME ( #85, #102 ) ;
#221 = EDGE_CURVE ( 'NONE', #105, #131, #288, .T. ) ;
#222 = DIRECTION ( 'NONE',  ( 0.0000000000000000000, 1.000000000000000000, 0.0000000000000000000 ) ) ;
#223 = EDGE_CURVE ( 'NONE', #61, #106, #70, .T. ) ;
#224 = ORIENTED_EDGE ( 'NONE', *, *, #95, .F. ) ;
#225 = ORIENTED_EDGE ( 'NONE', *, *, #171, .F. ) ;
#226 = ORIENTED_EDGE ( 'NONE', *, *, #189, .F. ) ;
#227 = ORIENTED_EDGE ( 'NONE', *, *, #189, .T. ) ;
#228 = VECTOR ( 'NONE', #216, 1000.000000000000000 ) ;
#229 = EDGE_CURVE ( 'NONE', #61, #1, #253, .T. ) ;
#230 = PERSON_AND_ORGANIZATION_ROLE ( 'classification_officer' ) ;
#231 = EDGE_CURVE ( 'NONE', #58, #105, #243, .T. ) ;
#232 = PRODUCT ( 'Web Model 47568_48581', 'Web Model 47568_48581', '', ( #301 ) ) ;
#233 = ORIENTED_EDGE ( 'NONE', *, *, #218, .F. ) ;
#234 = COORDINATED_UNIVERSAL_TIME_OFFSET ( 5, 0, .BEHIND. ) ;
#235 = DIRECTION ( 'NONE',  ( 0.0000000000000000000, 1.000000000000000000, -0.0000000000000000000 ) ) ;
#236 = AXIS2_PLACEMENT_3D ( 'NONE', #155, #55, #89 ) ;
#237 = FACE_OUTER_BOUND ( 'NONE', #26, .T. ) ;
#238 = EDGE_LOOP ( 'NONE', ( #78, #203, #217 ) ) ;
#239 = DIRECTION ( 'NONE',  ( -0.0000000000000000000, -0.0000000000000000000, -1.000000000000000000 ) ) ;
#240 = CARTESIAN_POINT ( 'NONE',  ( -0.0000000000000000000, 0.0000000000000000000, -17.50000000000000000 ) ) ;
#241 = VECTOR ( 'NONE', #153, 1000.000000000000000 ) ;
#242 = DESIGN_CONTEXT ( 'detailed design', #184, 'design' ) ;
#243 = LINE ( 'NONE', #244, #59 ) ;
#244 = CARTESIAN_POINT ( 'NONE',  ( -17.50000000000000000, 0.0000000000000000000, 17.50000000000000000 ) ) ;
#245 = DIRECTION ( 'NONE',  ( -0.0000000000000000000, -0.0000000000000000000, -1.000000000000000000 ) ) ;
#246 = CARTESIAN_POINT ( 'NONE',  ( -0.0000000000000000000, 17.50000000000000000, -17.50000000000000000 ) ) ;
#247 = LOCAL_TIME ( 13, 12, 39.00000000000000000, #234 ) ;
#248 = SECURITY_CLASSIFICATION_LEVEL ( 'unclassified' ) ;
#249 = DIRECTION ( 'NONE',  ( 0.0000000000000000000, 0.0000000000000000000, 1.000000000000000000 ) ) ;
#250 = ORIENTED_EDGE ( 'NONE', *, *, #229, .T. ) ;
#251 = UNCERTAINTY_MEASURE_WITH_UNIT (LENGTH_MEASURE( 1.000000000000000100E-005 ), #181, 'distance_accuracy_value', 'NONE');
#252 = AXIS2_PLACEMENT_3D ( 'NONE', #21, #134, #121 ) ;
#253 = LINE ( 'NONE', #50, #228 ) ;
#254 = COORDINATED_UNIVERSAL_TIME_OFFSET ( 5, 0, .BEHIND. ) ;
#255 =( GEOMETRIC_REPRESENTATION_CONTEXT ( 3 ) GLOBAL_UNCERTAINTY_ASSIGNED_CONTEXT ( ( #251 ) ) GLOBAL_UNIT_ASSIGNED_CONTEXT ( ( #181, #257, #37 ) ) REPRESENTATION_CONTEXT ( 'NONE', 'WORKASPACE' ) );
#256 = VECTOR ( 'NONE', #141, 1000.000000000000100 ) ;
#257 =( NAMED_UNIT ( * ) PLANE_ANGLE_UNIT ( ) SI_UNIT ( $, .RADIAN. ) );
#258 = MANIFOLD_SOLID_BREP ( 'Boss-Extrude3', #57 ) ;
#259 = PRODUCT_DEFINITION ( 'UNKNOWN', '', #127, #242 ) ;
#260 = APPROVAL_ROLE ( '' ) ;
#261 = ORIENTED_EDGE ( 'NONE', *, *, #64, .T. ) ;
#262 = FACE_OUTER_BOUND ( 'NONE', #310, .T. ) ;
#263 = VECTOR ( 'NONE', #98, 1000.000000000000000 ) ;
#264 = PLANE ( 'NONE',  #72 ) ;
#265 = CC_DESIGN_APPROVAL ( #138, ( #309 ) ) ;
#266 = CC_DESIGN_PERSON_AND_ORGANIZATION_ASSIGNMENT ( #293, #230, ( #309 ) ) ;
#267 = CARTESIAN_POINT ( 'NONE',  ( 17.50000000000000000, -17.50000000000000000, 17.50000000000000000 ) ) ;
#268 = CALENDAR_DATE ( 2017, 26, 4 ) ;
#269 = VECTOR ( 'NONE', #114, 1000.000000000000000 ) ;
#270 = CARTESIAN_POINT ( 'NONE',  ( 17.50000000000000000, 17.50000000000000000, 17.50000000000000000 ) ) ;
#271 = CC_DESIGN_SECURITY_CLASSIFICATION ( #309, ( #127 ) ) ;
#272 = ORIENTED_EDGE ( 'NONE', *, *, #115, .F. ) ;
#273 = CARTESIAN_POINT ( 'NONE',  ( -17.50000000000000000, 17.50000000000000000, -17.50000000000000000 ) ) ;
#274 = FACE_OUTER_BOUND ( 'NONE', #76, .T. ) ;
#275 = CALENDAR_DATE ( 2017, 26, 4 ) ;
#276 = PERSON_AND_ORGANIZATION ( #187, #44 ) ;
#277 = VERTEX_POINT ( 'NONE', #294 ) ;
#278 = PRODUCT_RELATED_PRODUCT_CATEGORY ( 'detail', '', ( #232 ) ) ;
#279 = CARTESIAN_POINT ( 'NONE',  ( 0.0000000000000000000, 17.50000000000000000, 17.50000000000000000 ) ) ;
#280 = LINE ( 'NONE', #24, #31 ) ;
#281 = LINE ( 'NONE', #2, #159 ) ;
#282 = CC_DESIGN_APPROVAL ( #182, ( #127 ) ) ;
#283 = CC_DESIGN_DATE_AND_TIME_ASSIGNMENT ( #83, #154, ( #309 ) ) ;
#284 = AXIS2_PLACEMENT_3D ( 'NONE', #302, #249, #93 ) ;
#285 = ORIENTED_EDGE ( 'NONE', *, *, #118, .T. ) ;
#286 = VECTOR ( 'NONE', #205, 1000.000000000000000 ) ;
#287 = DIRECTION ( 'NONE',  ( 0.7071067811865475700, 0.7071067811865475700, -0.0000000000000000000 ) ) ;
#288 = LINE ( 'NONE', #200, #142 ) ;
#289 = FACE_OUTER_BOUND ( 'NONE', #238, .T. ) ;
#290 = APPLICATION_CONTEXT ( 'configuration controlled 3d designs of mechanical parts and assemblies' ) ;
#291 = LINE ( 'NONE', #246, #286 ) ;
#292 = PERSON_AND_ORGANIZATION_ROLE ( 'creator' ) ;
#293 = PERSON_AND_ORGANIZATION ( #187, #44 ) ;
#294 = CARTESIAN_POINT ( 'NONE',  ( 17.50000000000000000, -17.50000000000000000, -17.50000000000000000 ) ) ;
#295 = CC_DESIGN_PERSON_AND_ORGANIZATION_ASSIGNMENT ( #96, #292, ( #127 ) ) ;
#296 = EDGE_LOOP ( 'NONE', ( #33, #224, #180, #285 ) ) ;
#297 = ORIENTED_EDGE ( 'NONE', *, *, #97, .T. ) ;
#298 = ORIENTED_EDGE ( 'NONE', *, *, #221, .T. ) ;
#299 = ORIENTED_EDGE ( 'NONE', *, *, #171, .T. ) ;
#300 = CARTESIAN_POINT ( 'NONE',  ( 17.50000000000000000, -17.50000000000000000, 17.50000000000000000 ) ) ;
#301 = MECHANICAL_CONTEXT ( 'NONE', #290, 'mechanical' ) ;
#302 = CARTESIAN_POINT ( 'NONE',  ( 0.0000000000000000000, 0.0000000000000000000, 0.0000000000000000000 ) ) ;
#303 = SHAPE_DEFINITION_REPRESENTATION ( #74, #36 ) ;
#304 = APPROVAL_DATE_TIME ( #130, #182 ) ;
#305 = COORDINATED_UNIVERSAL_TIME_OFFSET ( 5, 0, .BEHIND. ) ;
#306 = COORDINATED_UNIVERSAL_TIME_OFFSET ( 5, 0, .BEHIND. ) ;
#307 = DATE_TIME_ROLE ( 'creation_date' ) ;
#308 = APPLICATION_PROTOCOL_DEFINITION ( 'international standard', 'config_control_design', 1994, #184 ) ;
#309 = SECURITY_CLASSIFICATION ( '', '', #248 ) ;
#310 = EDGE_LOOP ( 'NONE', ( #140, #149, #212 ) ) ;
#311 = VECTOR ( 'NONE', #235, 1000.000000000000000 ) ;
#312 = DIRECTION ( 'NONE',  ( 0.0000000000000000000, 0.0000000000000000000, 1.000000000000000000 ) ) ;
#313 = CC_DESIGN_APPROVAL ( #102, ( #259 ) ) ;
#314 = ORIENTED_EDGE ( 'NONE', *, *, #150, .F. ) ;
#315 = LINE ( 'NONE', #68, #152 ) ;
#316 = ADVANCED_FACE ( 'NONE', ( #197 ), #77, .F. ) ;
#317 = DIRECTION ( 'NONE',  ( 0.0000000000000000000, 1.000000000000000000, -0.0000000000000000000 ) ) ;
#318 = CARTESIAN_POINT ( 'NONE',  ( 0.0000000000000000000, 0.0000000000000000000, 17.50000000000000000 ) ) ;
#319 = PERSON_AND_ORGANIZATION ( #187, #44 ) ;
#320 = EDGE_LOOP ( 'NONE', ( #119, #174, #14, #179 ) ) ;
#321 = VERTEX_POINT ( 'NONE', #170 ) ;
ENDSEC;
END-ISO-10303-21;
