ISO-10303-21;
HEADER;
FILE_DESCRIPTION (( 'STEP AP203' ),
    '1' );
FILE_NAME ('Web Model 37689_37717.step',
    '2018-08-03T18:46:15',
    ( '' ),
    ( '' ),
    'SwSTEP 2.0',
    'SolidWorks 2016',
    '' );
FILE_SCHEMA (( 'CONFIG_CONTROL_DESIGN' ));
ENDSEC;

DATA;
#1 = LINE ( 'NONE', #25, #169 ) ;
#2 = CIRCLE ( 'NONE', #151, 12.69999999999999900 ) ;
#3 = CC_DESIGN_PERSON_AND_ORGANIZATION_ASSIGNMENT ( #94, #84, ( #80 ) ) ;
#4 = COORDINATED_UNIVERSAL_TIME_OFFSET ( 5, 0, .BEHIND. ) ;
#5 = COORDINATED_UNIVERSAL_TIME_OFFSET ( 5, 0, .BEHIND. ) ;
#6 = EDGE_LOOP ( 'NONE', ( #134, #142, #65, #88 ) ) ;
#7 = APPROVAL ( #92, 'UNSPECIFIED' ) ;
#8 = DATE_AND_TIME ( #119, #164 ) ;
#9 = PLANE ( 'NONE',  #160 ) ;
#10 = VERTEX_POINT ( 'NONE', #175 ) ;
#11 = DIRECTION ( 'NONE',  ( -0.0000000000000000000, -0.0000000000000000000, -1.000000000000000000 ) ) ;
#12 = DIRECTION ( 'NONE',  ( 0.0000000000000000000, 0.0000000000000000000, 1.000000000000000000 ) ) ;
#13 = PERSON_AND_ORGANIZATION ( #140, #111 ) ;
#14 = PERSON_AND_ORGANIZATION_ROLE ( 'classification_officer' ) ;
#15 = DIRECTION ( 'NONE',  ( 1.000000000000000000, 0.0000000000000000000, 0.0000000000000000000 ) ) ;
#16 = APPROVAL_PERSON_ORGANIZATION ( #47, #7, #129 ) ;
#17 = EDGE_LOOP ( 'NONE', ( #68, #117 ) ) ;
#18 = APPLICATION_CONTEXT ( 'configuration controlled 3d designs of mechanical parts and assemblies' ) ;
#19 = CC_DESIGN_DATE_AND_TIME_ASSIGNMENT ( #59, #40, ( #21 ) ) ;
#20 = ADVANCED_FACE ( 'NONE', ( #145 ), #75, .F. ) ;
#21 = PRODUCT_DEFINITION ( 'UNKNOWN', '', #154, #135 ) ;
#22 = COORDINATED_UNIVERSAL_TIME_OFFSET ( 5, 0, .BEHIND. ) ;
#23 = DIRECTION ( 'NONE',  ( 0.0000000000000000000, 0.0000000000000000000, 1.000000000000000000 ) ) ;
#24 = CARTESIAN_POINT ( 'NONE',  ( 0.0000000000000000000, 0.0000000000000000000, 3.174999999999999800 ) ) ;
#25 = CARTESIAN_POINT ( 'NONE',  ( -12.69999999999999900, 0.0000000000000000000, 3.174999999999999800 ) ) ;
#26 = CYLINDRICAL_SURFACE ( 'NONE', #122, 12.69999999999999900 ) ;
#27 = APPROVAL_DATE_TIME ( #76, #112 ) ;
#28 = APPROVAL ( #93, 'UNSPECIFIED' ) ;
#29 = MANIFOLD_SOLID_BREP ( 'Boss-Extrude1', #71 ) ;
#30 = ORIENTED_EDGE ( 'NONE', *, *, #124, .T. ) ;
#31 = AXIS2_PLACEMENT_3D ( 'NONE', #114, #171, #54 ) ;
#32 = LOCAL_TIME ( 14, 46, 15.00000000000000000, #4 ) ;
#33 = CARTESIAN_POINT ( 'NONE',  ( 0.0000000000000000000, 0.0000000000000000000, 3.174999999999999800 ) ) ;
#34 = DIRECTION ( 'NONE',  ( 0.0000000000000000000, 0.0000000000000000000, 1.000000000000000000 ) ) ;
#35 = EDGE_LOOP ( 'NONE', ( #109, #30, #83, #78 ) ) ;
#36 = DIRECTION ( 'NONE',  ( 0.0000000000000000000, 0.0000000000000000000, 1.000000000000000000 ) ) ;
#37 = COORDINATED_UNIVERSAL_TIME_OFFSET ( 5, 0, .BEHIND. ) ;
#38 = APPROVAL_ROLE ( '' ) ;
#39 = ORIENTED_EDGE ( 'NONE', *, *, #100, .F. ) ;
#40 = DATE_TIME_ROLE ( 'creation_date' ) ;
#41 = CC_DESIGN_PERSON_AND_ORGANIZATION_ASSIGNMENT ( #121, #116, ( #21 ) ) ;
#42 = ADVANCED_BREP_SHAPE_REPRESENTATION ( 'Web Model 37689_37717', ( #29, #79 ), #132 ) ;
#43 =( NAMED_UNIT ( * ) PLANE_ANGLE_UNIT ( ) SI_UNIT ( $, .RADIAN. ) );
#44 = DATE_AND_TIME ( #108, #48 ) ;
#45 = VERTEX_POINT ( 'NONE', #113 ) ;
#46 = CC_DESIGN_PERSON_AND_ORGANIZATION_ASSIGNMENT ( #61, #146, ( #154 ) ) ;
#47 = PERSON_AND_ORGANIZATION ( #140, #111 ) ;
#48 = LOCAL_TIME ( 14, 46, 15.00000000000000000, #5 ) ;
#49 = PERSON_AND_ORGANIZATION ( #140, #111 ) ;
#50 = CC_DESIGN_APPROVAL ( #7, ( #154 ) ) ;
#51 = COORDINATED_UNIVERSAL_TIME_OFFSET ( 5, 0, .BEHIND. ) ;
#52 = CARTESIAN_POINT ( 'NONE',  ( 0.0000000000000000000, 0.0000000000000000000, 3.174999999999999800 ) ) ;
#53 = VERTEX_POINT ( 'NONE', #174 ) ;
#54 = DIRECTION ( 'NONE',  ( -1.000000000000000000, 0.0000000000000000000, 0.0000000000000000000 ) ) ;
#55 = DIRECTION ( 'NONE',  ( 1.000000000000000000, 0.0000000000000000000, -0.0000000000000000000 ) ) ;
#56 = CC_DESIGN_APPROVAL ( #28, ( #21 ) ) ;
#57 = MECHANICAL_CONTEXT ( 'NONE', #81, 'mechanical' ) ;
#58 = EDGE_CURVE ( 'NONE', #45, #105, #1, .T. ) ;
#59 = DATE_AND_TIME ( #149, #161 ) ;
#60 = ADVANCED_FACE ( 'NONE', ( #152 ), #126, .T. ) ;
#61 = PERSON_AND_ORGANIZATION ( #140, #111 ) ;
#62 = CC_DESIGN_PERSON_AND_ORGANIZATION_ASSIGNMENT ( #102, #130, ( #154 ) ) ;
#63 = DIRECTION ( 'NONE',  ( 1.000000000000000000, 0.0000000000000000000, -0.0000000000000000000 ) ) ;
#64 = CARTESIAN_POINT ( 'NONE',  ( 0.0000000000000000000, 0.0000000000000000000, 3.174999999999999800 ) ) ;
#65 = ORIENTED_EDGE ( 'NONE', *, *, #58, .T. ) ;
#66 = CALENDAR_DATE ( 2018, 3, 8 ) ;
#67 = PRODUCT_DEFINITION_SHAPE ( 'NONE', 'NONE',  #21 ) ;
#68 = ORIENTED_EDGE ( 'NONE', *, *, #82, .T. ) ;
#69 = APPROVAL_STATUS ( 'not_yet_approved' ) ;
#70 = EDGE_CURVE ( 'NONE', #53, #45, #137, .T. ) ;
#71 = CLOSED_SHELL ( 'NONE', ( #60, #153, #86, #20 ) ) ;
#72 = SECURITY_CLASSIFICATION ( '', '', #148 ) ;
#73 = EDGE_LOOP ( 'NONE', ( #39, #172 ) ) ;
#74 = CC_DESIGN_PERSON_AND_ORGANIZATION_ASSIGNMENT ( #49, #14, ( #72 ) ) ;
#75 = PLANE ( 'NONE',  #96 ) ;
#76 = DATE_AND_TIME ( #66, #97 ) ;
#77 = APPROVAL_PERSON_ORGANIZATION ( #138, #28, #38 ) ;
#78 = ORIENTED_EDGE ( 'NONE', *, *, #58, .F. ) ;
#79 = AXIS2_PLACEMENT_3D ( 'NONE', #144, #34, #15 ) ;
#80 = PRODUCT ( 'Web Model 37689_37717', 'Web Model 37689_37717', '', ( #57 ) ) ;
#81 = APPLICATION_CONTEXT ( 'configuration controlled 3d designs of mechanical parts and assemblies' ) ;
#82 = EDGE_CURVE ( 'NONE', #45, #53, #128, .T. ) ;
#83 = ORIENTED_EDGE ( 'NONE', *, *, #136, .T. ) ;
#84 = PERSON_AND_ORGANIZATION_ROLE ( 'design_owner' ) ;
#85 = PRODUCT_RELATED_PRODUCT_CATEGORY ( 'detail', '', ( #80 ) ) ;
#86 = ADVANCED_FACE ( 'NONE', ( #131 ), #9, .T. ) ;
#87 = CC_DESIGN_SECURITY_CLASSIFICATION ( #72, ( #154 ) ) ;
#88 = ORIENTED_EDGE ( 'NONE', *, *, #100, .T. ) ;
#89 = DIRECTION ( 'NONE',  ( 0.0000000000000000000, 0.0000000000000000000, 1.000000000000000000 ) ) ;
#90 = CARTESIAN_POINT ( 'NONE',  ( 0.0000000000000000000, 0.0000000000000000000, -3.174999999999999800 ) ) ;
#91 = CARTESIAN_POINT ( 'NONE',  ( 0.0000000000000000000, 0.0000000000000000000, -3.174999999999999800 ) ) ;
#92 = APPROVAL_STATUS ( 'not_yet_approved' ) ;
#93 = APPROVAL_STATUS ( 'not_yet_approved' ) ;
#94 = PERSON_AND_ORGANIZATION ( #140, #111 ) ;
#95 =( NAMED_UNIT ( * ) SI_UNIT ( $, .STERADIAN. ) SOLID_ANGLE_UNIT ( ) );
#96 = AXIS2_PLACEMENT_3D ( 'NONE', #90, #125, #63 ) ;
#97 = LOCAL_TIME ( 14, 46, 15.00000000000000000, #37 ) ;
#98 = CARTESIAN_POINT ( 'NONE',  ( -12.69999999999999900, 0.0000000000000000000, -3.174999999999999800 ) ) ;
#99 = DIRECTION ( 'NONE',  ( 1.000000000000000000, 0.0000000000000000000, 0.0000000000000000000 ) ) ;
#100 = EDGE_CURVE ( 'NONE', #105, #10, #2, .T. ) ;
#101 = DIRECTION ( 'NONE',  ( 0.0000000000000000000, 0.0000000000000000000, 1.000000000000000000 ) ) ;
#102 = PERSON_AND_ORGANIZATION ( #140, #111 ) ;
#103 = AXIS2_PLACEMENT_3D ( 'NONE', #52, #36, #156 ) ;
#104 = CIRCLE ( 'NONE', #120, 12.69999999999999900 ) ;
#105 = VERTEX_POINT ( 'NONE', #98 ) ;
#106 = AXIS2_PLACEMENT_3D ( 'NONE', #24, #23, #157 ) ;
#107 = DATE_AND_TIME ( #133, #32 ) ;
#108 = CALENDAR_DATE ( 2018, 3, 8 ) ;
#109 = ORIENTED_EDGE ( 'NONE', *, *, #70, .F. ) ;
#110 = CARTESIAN_POINT ( 'NONE',  ( 12.69999999999999900, 1.555301434917138400E-015, 3.174999999999999800 ) ) ;
#111 = ORGANIZATION ( 'UNSPECIFIED', 'UNSPECIFIED', '' ) ;
#112 = APPROVAL ( #69, 'UNSPECIFIED' ) ;
#113 = CARTESIAN_POINT ( 'NONE',  ( -12.69999999999999900, 0.0000000000000000000, 3.174999999999999800 ) ) ;
#114 = CARTESIAN_POINT ( 'NONE',  ( 0.0000000000000000000, 0.0000000000000000000, 3.174999999999999800 ) ) ;
#115 =( LENGTH_UNIT ( ) NAMED_UNIT ( * ) SI_UNIT ( .MILLI., .METRE. ) );
#116 = PERSON_AND_ORGANIZATION_ROLE ( 'creator' ) ;
#117 = ORIENTED_EDGE ( 'NONE', *, *, #70, .T. ) ;
#118 = CC_DESIGN_DATE_AND_TIME_ASSIGNMENT ( #107, #159, ( #72 ) ) ;
#119 = CALENDAR_DATE ( 2018, 3, 8 ) ;
#120 = AXIS2_PLACEMENT_3D ( 'NONE', #170, #89, #99 ) ;
#121 = PERSON_AND_ORGANIZATION ( #140, #111 ) ;
#122 = AXIS2_PLACEMENT_3D ( 'NONE', #33, #123, #173 ) ;
#123 = DIRECTION ( 'NONE',  ( -0.0000000000000000000, -0.0000000000000000000, -1.000000000000000000 ) ) ;
#124 = EDGE_CURVE ( 'NONE', #53, #10, #168, .T. ) ;
#125 = DIRECTION ( 'NONE',  ( 0.0000000000000000000, 0.0000000000000000000, 1.000000000000000000 ) ) ;
#126 = CYLINDRICAL_SURFACE ( 'NONE', #31, 12.69999999999999900 ) ;
#127 = APPLICATION_PROTOCOL_DEFINITION ( 'international standard', 'config_control_design', 1994, #81 ) ;
#128 = CIRCLE ( 'NONE', #106, 12.69999999999999900 ) ;
#129 = APPROVAL_ROLE ( '' ) ;
#130 = PERSON_AND_ORGANIZATION_ROLE ( 'design_supplier' ) ;
#131 = FACE_OUTER_BOUND ( 'NONE', #17, .T. ) ;
#132 =( GEOMETRIC_REPRESENTATION_CONTEXT ( 3 ) GLOBAL_UNCERTAINTY_ASSIGNED_CONTEXT ( ( #166 ) ) GLOBAL_UNIT_ASSIGNED_CONTEXT ( ( #115, #43, #95 ) ) REPRESENTATION_CONTEXT ( 'NONE', 'WORKASPACE' ) );
#133 = CALENDAR_DATE ( 2018, 3, 8 ) ;
#134 = ORIENTED_EDGE ( 'NONE', *, *, #124, .F. ) ;
#135 = DESIGN_CONTEXT ( 'detailed design', #18, 'design' ) ;
#136 = EDGE_CURVE ( 'NONE', #10, #105, #104, .T. ) ;
#137 = CIRCLE ( 'NONE', #103, 12.69999999999999900 ) ;
#138 = PERSON_AND_ORGANIZATION ( #140, #111 ) ;
#139 = SHAPE_DEFINITION_REPRESENTATION ( #67, #42 ) ;
#140 = PERSON ( 'UNSPECIFIED', 'UNSPECIFIED', 'UNSPECIFIED', ('UNSPECIFIED'), ('UNSPECIFIED'), ('UNSPECIFIED') ) ;
#141 = APPROVAL_DATE_TIME ( #44, #7 ) ;
#142 = ORIENTED_EDGE ( 'NONE', *, *, #82, .F. ) ;
#143 = DIRECTION ( 'NONE',  ( -0.0000000000000000000, -0.0000000000000000000, -1.000000000000000000 ) ) ;
#144 = CARTESIAN_POINT ( 'NONE',  ( 0.0000000000000000000, 0.0000000000000000000, 0.0000000000000000000 ) ) ;
#145 = FACE_OUTER_BOUND ( 'NONE', #73, .T. ) ;
#146 = PERSON_AND_ORGANIZATION_ROLE ( 'creator' ) ;
#147 = APPROVAL_ROLE ( '' ) ;
#148 = SECURITY_CLASSIFICATION_LEVEL ( 'unclassified' ) ;
#149 = CALENDAR_DATE ( 2018, 3, 8 ) ;
#150 = APPROVAL_PERSON_ORGANIZATION ( #13, #112, #147 ) ;
#151 = AXIS2_PLACEMENT_3D ( 'NONE', #91, #12, #158 ) ;
#152 = FACE_OUTER_BOUND ( 'NONE', #35, .T. ) ;
#153 = ADVANCED_FACE ( 'NONE', ( #155 ), #26, .T. ) ;
#154 = PRODUCT_DEFINITION_FORMATION_WITH_SPECIFIED_SOURCE ( 'ANY', '', #80, .NOT_KNOWN. ) ;
#155 = FACE_OUTER_BOUND ( 'NONE', #6, .T. ) ;
#156 = DIRECTION ( 'NONE',  ( 1.000000000000000000, 0.0000000000000000000, 0.0000000000000000000 ) ) ;
#157 = DIRECTION ( 'NONE',  ( 1.000000000000000000, 0.0000000000000000000, 0.0000000000000000000 ) ) ;
#158 = DIRECTION ( 'NONE',  ( 1.000000000000000000, 0.0000000000000000000, 0.0000000000000000000 ) ) ;
#159 = DATE_TIME_ROLE ( 'classification_date' ) ;
#160 = AXIS2_PLACEMENT_3D ( 'NONE', #64, #101, #55 ) ;
#161 = LOCAL_TIME ( 14, 46, 15.00000000000000000, #22 ) ;
#162 = VECTOR ( 'NONE', #11, 1000.000000000000000 ) ;
#163 = APPLICATION_PROTOCOL_DEFINITION ( 'international standard', 'config_control_design', 1994, #18 ) ;
#164 = LOCAL_TIME ( 14, 46, 15.00000000000000000, #51 ) ;
#165 = CC_DESIGN_APPROVAL ( #112, ( #72 ) ) ;
#166 = UNCERTAINTY_MEASURE_WITH_UNIT (LENGTH_MEASURE( 1.000000000000000100E-005 ), #115, 'distance_accuracy_value', 'NONE');
#167 = APPROVAL_DATE_TIME ( #8, #28 ) ;
#168 = LINE ( 'NONE', #110, #162 ) ;
#169 = VECTOR ( 'NONE', #143, 1000.000000000000000 ) ;
#170 = CARTESIAN_POINT ( 'NONE',  ( 0.0000000000000000000, 0.0000000000000000000, -3.174999999999999800 ) ) ;
#171 = DIRECTION ( 'NONE',  ( -0.0000000000000000000, -0.0000000000000000000, -1.000000000000000000 ) ) ;
#172 = ORIENTED_EDGE ( 'NONE', *, *, #136, .F. ) ;
#173 = DIRECTION ( 'NONE',  ( -1.000000000000000000, 0.0000000000000000000, 0.0000000000000000000 ) ) ;
#174 = CARTESIAN_POINT ( 'NONE',  ( 12.69999999999999900, 1.555301434917138400E-015, 3.174999999999999800 ) ) ;
#175 = CARTESIAN_POINT ( 'NONE',  ( 12.69999999999999900, 1.555301434917138400E-015, -3.174999999999999800 ) ) ;
ENDSEC;
END-ISO-10303-21;
