ISO-10303-21;
HEADER;
FILE_DESCRIPTION (( 'STEP AP203' ),
    '1' );
FILE_NAME ('Web Model 47945.STEP',
    '2017-01-31T15:21:02',
    ( '' ),
    ( '' ),
    'SwSTEP 2.0',
    'SolidWorks 2016',
    '' );
FILE_SCHEMA (( 'CONFIG_CONTROL_DESIGN' ));
ENDSEC;

DATA;
#1 = EDGE_CURVE ( 'NONE', #35, #53, #77, .T. ) ;
#2 = VERTEX_POINT ( 'NONE', #67 ) ;
#3 = VECTOR ( 'NONE', #161, 1000.000000000000000 ) ;
#4 = VECTOR ( 'NONE', #196, 1000.000000000000000 ) ;
#5 = CC_DESIGN_DATE_AND_TIME_ASSIGNMENT ( #134, #216, ( #17 ) ) ;
#6 =( GEOMETRIC_REPRESENTATION_CONTEXT ( 3 ) GLOBAL_UNCERTAINTY_ASSIGNED_CONTEXT ( ( #230 ) ) GLOBAL_UNIT_ASSIGNED_CONTEXT ( ( #46, #104, #32 ) ) REPRESENTATION_CONTEXT ( 'NONE', 'WORKASPACE' ) );
#7 = DIRECTION ( 'NONE',  ( 0.0000000000000000000, 0.0000000000000000000, 1.000000000000000000 ) ) ;
#8 = DIRECTION ( 'NONE',  ( -1.000000000000000000, 0.0000000000000000000, 0.0000000000000000000 ) ) ;
#9 = ORIENTED_EDGE ( 'NONE', *, *, #24, .T. ) ;
#10 = EDGE_CURVE ( 'NONE', #35, #170, #227, .T. ) ;
#11 = CARTESIAN_POINT ( 'NONE',  ( 0.0000000000000000000, 0.0000000000000000000, 0.0000000000000000000 ) ) ;
#12 = LINE ( 'NONE', #138, #121 ) ;
#13 = DIRECTION ( 'NONE',  ( 0.0000000000000000000, 0.0000000000000000000, 1.000000000000000000 ) ) ;
#14 = ADVANCED_FACE ( 'NONE', ( #129 ), #168, .T. ) ;
#15 = EDGE_LOOP ( 'NONE', ( #156, #197, #232, #40 ) ) ;
#16 = VECTOR ( 'NONE', #202, 1000.000000000000000 ) ;
#17 = PRODUCT_DEFINITION ( 'UNKNOWN', '', #63, #135 ) ;
#18 = ORIENTED_EDGE ( 'NONE', *, *, #1, .T. ) ;
#19 = CARTESIAN_POINT ( 'NONE',  ( 50.00000000000000000, 0.0000000000000000000, -4.000000000000000000 ) ) ;
#20 = EDGE_CURVE ( 'NONE', #58, #2, #12, .T. ) ;
#21 = DIRECTION ( 'NONE',  ( 1.000000000000000000, 0.0000000000000000000, 0.0000000000000000000 ) ) ;
#22 = AXIS2_PLACEMENT_3D ( 'NONE', #42, #226, #75 ) ;
#23 = ORIENTED_EDGE ( 'NONE', *, *, #85, .F. ) ;
#24 = EDGE_CURVE ( 'NONE', #70, #112, #52, .T. ) ;
#25 = COORDINATED_UNIVERSAL_TIME_OFFSET ( 5, 0, .BEHIND. ) ;
#26 = PERSON_AND_ORGANIZATION ( #128, #191 ) ;
#27 = CARTESIAN_POINT ( 'NONE',  ( 0.0000000000000000000, 50.00000000000000000, 0.0000000000000000000 ) ) ;
#28 = LOCAL_TIME ( 10, 21, 2.000000000000000000, #190 ) ;
#29 = APPROVAL_STATUS ( 'not_yet_approved' ) ;
#30 = DATE_AND_TIME ( #89, #83 ) ;
#31 = DATE_TIME_ROLE ( 'classification_date' ) ;
#32 =( NAMED_UNIT ( * ) SI_UNIT ( $, .STERADIAN. ) SOLID_ANGLE_UNIT ( ) );
#33 = PLANE ( 'NONE',  #22 ) ;
#34 = ADVANCED_FACE ( 'NONE', ( #147 ), #235, .T. ) ;
#35 = VERTEX_POINT ( 'NONE', #56 ) ;
#36 = PERSON_AND_ORGANIZATION ( #128, #191 ) ;
#37 = ADVANCED_FACE ( 'NONE', ( #66 ), #115, .T. ) ;
#38 = EDGE_CURVE ( 'NONE', #170, #44, #101, .T. ) ;
#39 = ORIENTED_EDGE ( 'NONE', *, *, #193, .T. ) ;
#40 = ORIENTED_EDGE ( 'NONE', *, *, #48, .T. ) ;
#41 = DATE_AND_TIME ( #154, #28 ) ;
#42 = CARTESIAN_POINT ( 'NONE',  ( 0.0000000000000000000, 50.00000000000000000, 0.0000000000000000000 ) ) ;
#43 = EDGE_CURVE ( 'NONE', #2, #53, #59, .T. ) ;
#44 = VERTEX_POINT ( 'NONE', #49 ) ;
#45 = CARTESIAN_POINT ( 'NONE',  ( 0.0000000000000000000, 50.00000000000000000, 0.0000000000000000000 ) ) ;
#46 =( LENGTH_UNIT ( ) NAMED_UNIT ( * ) SI_UNIT ( .MILLI., .METRE. ) );
#47 = AXIS2_PLACEMENT_3D ( 'NONE', #99, #219, #57 ) ;
#48 = EDGE_CURVE ( 'NONE', #44, #112, #214, .T. ) ;
#49 = CARTESIAN_POINT ( 'NONE',  ( 0.0000000000000000000, 50.00000000000000000, -4.000000000000000000 ) ) ;
#50 = VECTOR ( 'NONE', #167, 1000.000000000000000 ) ;
#51 = DATE_AND_TIME ( #176, #88 ) ;
#52 = LINE ( 'NONE', #27, #4 ) ;
#53 = VERTEX_POINT ( 'NONE', #76 ) ;
#54 = CC_DESIGN_DATE_AND_TIME_ASSIGNMENT ( #51, #31, ( #218 ) ) ;
#55 = CALENDAR_DATE ( 2017, 31, 1 ) ;
#56 = CARTESIAN_POINT ( 'NONE',  ( 50.00000000000000000, 0.0000000000000000000, -4.000000000000000000 ) ) ;
#57 = DIRECTION ( 'NONE',  ( 0.0000000000000000000, -0.0000000000000000000, -1.000000000000000000 ) ) ;
#58 = VERTEX_POINT ( 'NONE', #116 ) ;
#59 = LINE ( 'NONE', #124, #50 ) ;
#60 = APPLICATION_CONTEXT ( 'configuration controlled 3d designs of mechanical parts and assemblies' ) ;
#61 = CARTESIAN_POINT ( 'NONE',  ( 0.0000000000000000000, 50.00000000000000000, -4.000000000000000000 ) ) ;
#62 = APPLICATION_PROTOCOL_DEFINITION ( 'international standard', 'config_control_design', 1994, #180 ) ;
#63 = PRODUCT_DEFINITION_FORMATION_WITH_SPECIFIED_SOURCE ( 'ANY', '', #184, .NOT_KNOWN. ) ;
#64 = ADVANCED_FACE ( 'NONE', ( #183 ), #194, .T. ) ;
#65 = COORDINATED_UNIVERSAL_TIME_OFFSET ( 5, 0, .BEHIND. ) ;
#66 = FACE_OUTER_BOUND ( 'NONE', #160, .T. ) ;
#67 = CARTESIAN_POINT ( 'NONE',  ( 0.0000000000000000000, 0.0000000000000000000, 0.0000000000000000000 ) ) ;
#68 = MANIFOLD_SOLID_BREP ( 'Extrude1', #224 ) ;
#69 = PERSON_AND_ORGANIZATION ( #128, #191 ) ;
#70 = VERTEX_POINT ( 'NONE', #163 ) ;
#71 = EDGE_CURVE ( 'NONE', #170, #70, #133, .T. ) ;
#72 = PERSON_AND_ORGANIZATION ( #128, #191 ) ;
#73 = PRODUCT_RELATED_PRODUCT_CATEGORY ( 'detail', '', ( #184 ) ) ;
#74 = CARTESIAN_POINT ( 'NONE',  ( 0.0000000000000000000, 0.0000000000000000000, -4.000000000000000000 ) ) ;
#75 = DIRECTION ( 'NONE',  ( -1.000000000000000000, 0.0000000000000000000, -0.0000000000000000000 ) ) ;
#76 = CARTESIAN_POINT ( 'NONE',  ( 50.00000000000000000, 0.0000000000000000000, 0.0000000000000000000 ) ) ;
#77 = LINE ( 'NONE', #19, #187 ) ;
#78 = APPROVAL ( #29, 'UNSPECIFIED' ) ;
#79 = PERSON_AND_ORGANIZATION ( #128, #191 ) ;
#80 = ORIENTED_EDGE ( 'NONE', *, *, #207, .F. ) ;
#81 = FACE_OUTER_BOUND ( 'NONE', #174, .T. ) ;
#82 = PERSON_AND_ORGANIZATION_ROLE ( 'classification_officer' ) ;
#83 = LOCAL_TIME ( 10, 21, 2.000000000000000000, #139 ) ;
#84 = APPROVAL_ROLE ( '' ) ;
#85 = EDGE_CURVE ( 'NONE', #58, #35, #162, .T. ) ;
#86 = DIRECTION ( 'NONE',  ( 0.0000000000000000000, 0.0000000000000000000, 1.000000000000000000 ) ) ;
#87 = PLANE ( 'NONE',  #47 ) ;
#88 = LOCAL_TIME ( 10, 21, 2.000000000000000000, #65 ) ;
#89 = CALENDAR_DATE ( 2017, 31, 1 ) ;
#90 = VECTOR ( 'NONE', #220, 1000.000000000000000 ) ;
#91 = DIRECTION ( 'NONE',  ( 0.0000000000000000000, 0.0000000000000000000, 1.000000000000000000 ) ) ;
#92 = PERSON_AND_ORGANIZATION ( #128, #191 ) ;
#93 = ORIENTED_EDGE ( 'NONE', *, *, #111, .F. ) ;
#94 = LINE ( 'NONE', #198, #3 ) ;
#95 = LINE ( 'NONE', #98, #179 ) ;
#96 = VECTOR ( 'NONE', #186, 1000.000000000000000 ) ;
#97 = DIRECTION ( 'NONE',  ( 0.0000000000000000000, 1.000000000000000000, 0.0000000000000000000 ) ) ;
#98 = CARTESIAN_POINT ( 'NONE',  ( 50.00000000000000000, 0.0000000000000000000, 0.0000000000000000000 ) ) ;
#99 = CARTESIAN_POINT ( 'NONE',  ( 0.0000000000000000000, 0.0000000000000000000, -4.000000000000000000 ) ) ;
#100 = CARTESIAN_POINT ( 'NONE',  ( 0.0000000000000000000, 50.00000000000000000, -4.000000000000000000 ) ) ;
#101 = LINE ( 'NONE', #61, #113 ) ;
#102 = DIRECTION ( 'NONE',  ( 0.0000000000000000000, 0.0000000000000000000, -1.000000000000000000 ) ) ;
#103 = PERSON_AND_ORGANIZATION_ROLE ( 'design_supplier' ) ;
#104 =( NAMED_UNIT ( * ) PLANE_ANGLE_UNIT ( ) SI_UNIT ( $, .RADIAN. ) );
#105 = DATE_AND_TIME ( #55, #223 ) ;
#106 = CC_DESIGN_APPROVAL ( #78, ( #63 ) ) ;
#107 = ADVANCED_FACE ( 'NONE', ( #81 ), #33, .F. ) ;
#108 = EDGE_LOOP ( 'NONE', ( #80, #123, #237, #151 ) ) ;
#109 = APPROVAL_DATE_TIME ( #41, #78 ) ;
#110 = AXIS2_PLACEMENT_3D ( 'NONE', #11, #13, #119 ) ;
#111 = EDGE_CURVE ( 'NONE', #44, #58, #94, .T. ) ;
#112 = VERTEX_POINT ( 'NONE', #45 ) ;
#113 = VECTOR ( 'NONE', #144, 1000.000000000000000 ) ;
#114 = DIRECTION ( 'NONE',  ( 0.0000000000000000000, -0.0000000000000000000, 1.000000000000000000 ) ) ;
#115 = PLANE ( 'NONE',  #166 ) ;
#116 = CARTESIAN_POINT ( 'NONE',  ( 0.0000000000000000000, 0.0000000000000000000, -4.000000000000000000 ) ) ;
#117 = DIRECTION ( 'NONE',  ( 0.0000000000000000000, 0.0000000000000000000, -1.000000000000000000 ) ) ;
#118 = EDGE_LOOP ( 'NONE', ( #209, #231, #203, #175 ) ) ;
#119 = DIRECTION ( 'NONE',  ( 1.000000000000000000, 0.0000000000000000000, 0.0000000000000000000 ) ) ;
#120 = APPROVAL ( #140, 'UNSPECIFIED' ) ;
#121 = VECTOR ( 'NONE', #86, 1000.000000000000000 ) ;
#122 = PERSON_AND_ORGANIZATION ( #128, #191 ) ;
#123 = ORIENTED_EDGE ( 'NONE', *, *, #1, .F. ) ;
#124 = CARTESIAN_POINT ( 'NONE',  ( 0.0000000000000000000, 0.0000000000000000000, 0.0000000000000000000 ) ) ;
#125 = VECTOR ( 'NONE', #7, 1000.000000000000000 ) ;
#126 = AXIS2_PLACEMENT_3D ( 'NONE', #152, #205, #102 ) ;
#127 = APPROVAL_DATE_TIME ( #30, #233 ) ;
#128 = PERSON ( 'UNSPECIFIED', 'UNSPECIFIED', 'UNSPECIFIED', ('UNSPECIFIED'), ('UNSPECIFIED'), ('UNSPECIFIED') ) ;
#129 = FACE_OUTER_BOUND ( 'NONE', #108, .T. ) ;
#130 = APPROVAL_PERSON_ORGANIZATION ( #69, #120, #84 ) ;
#131 = PERSON_AND_ORGANIZATION ( #128, #191 ) ;
#132 = ORIENTED_EDGE ( 'NONE', *, *, #10, .F. ) ;
#133 = LINE ( 'NONE', #149, #16 ) ;
#134 = DATE_AND_TIME ( #188, #171 ) ;
#135 = DESIGN_CONTEXT ( 'detailed design', #60, 'design' ) ;
#136 = CC_DESIGN_APPROVAL ( #120, ( #17 ) ) ;
#137 = CARTESIAN_POINT ( 'NONE',  ( 0.0000000000000000000, 50.00000000000000000, -4.000000000000000000 ) ) ;
#138 = CARTESIAN_POINT ( 'NONE',  ( 0.0000000000000000000, 0.0000000000000000000, -4.000000000000000000 ) ) ;
#139 = COORDINATED_UNIVERSAL_TIME_OFFSET ( 5, 0, .BEHIND. ) ;
#140 = APPROVAL_STATUS ( 'not_yet_approved' ) ;
#141 = DIRECTION ( 'NONE',  ( 0.0000000000000000000, 0.0000000000000000000, 1.000000000000000000 ) ) ;
#142 = CC_DESIGN_APPROVAL ( #233, ( #218 ) ) ;
#143 = APPROVAL_STATUS ( 'not_yet_approved' ) ;
#144 = DIRECTION ( 'NONE',  ( -1.000000000000000000, -0.0000000000000000000, -0.0000000000000000000 ) ) ;
#145 = APPLICATION_PROTOCOL_DEFINITION ( 'international standard', 'config_control_design', 1994, #60 ) ;
#146 = CARTESIAN_POINT ( 'NONE',  ( 50.00000000000000000, 50.00000000000000000, -4.000000000000000000 ) ) ;
#147 = FACE_OUTER_BOUND ( 'NONE', #118, .T. ) ;
#148 = APPROVAL_ROLE ( '' ) ;
#149 = CARTESIAN_POINT ( 'NONE',  ( 50.00000000000000000, 50.00000000000000000, -4.000000000000000000 ) ) ;
#150 = CC_DESIGN_PERSON_AND_ORGANIZATION_ASSIGNMENT ( #131, #236, ( #63 ) ) ;
#151 = ORIENTED_EDGE ( 'NONE', *, *, #71, .T. ) ;
#152 = CARTESIAN_POINT ( 'NONE',  ( 50.00000000000000000, 0.0000000000000000000, -4.000000000000000000 ) ) ;
#153 = VECTOR ( 'NONE', #21, 1000.000000000000000 ) ;
#154 = CALENDAR_DATE ( 2017, 31, 1 ) ;
#155 = APPROVAL_DATE_TIME ( #105, #120 ) ;
#156 = ORIENTED_EDGE ( 'NONE', *, *, #24, .F. ) ;
#157 = CC_DESIGN_PERSON_AND_ORGANIZATION_ASSIGNMENT ( #79, #103, ( #63 ) ) ;
#158 = SHAPE_DEFINITION_REPRESENTATION ( #173, #185 ) ;
#159 = DIRECTION ( 'NONE',  ( -1.000000000000000000, 0.0000000000000000000, -0.0000000000000000000 ) ) ;
#160 = EDGE_LOOP ( 'NONE', ( #93, #206, #132, #23 ) ) ;
#161 = DIRECTION ( 'NONE',  ( -0.0000000000000000000, -1.000000000000000000, -0.0000000000000000000 ) ) ;
#162 = LINE ( 'NONE', #74, #153 ) ;
#163 = CARTESIAN_POINT ( 'NONE',  ( 50.00000000000000000, 50.00000000000000000, 0.0000000000000000000 ) ) ;
#164 = DIRECTION ( 'NONE',  ( 0.0000000000000000000, 1.000000000000000000, 0.0000000000000000000 ) ) ;
#165 = ORIENTED_EDGE ( 'NONE', *, *, #20, .F. ) ;
#166 = AXIS2_PLACEMENT_3D ( 'NONE', #137, #117, #159 ) ;
#167 = DIRECTION ( 'NONE',  ( 1.000000000000000000, 0.0000000000000000000, 0.0000000000000000000 ) ) ;
#168 = PLANE ( 'NONE',  #126 ) ;
#169 = CC_DESIGN_SECURITY_CLASSIFICATION ( #218, ( #63 ) ) ;
#170 = VERTEX_POINT ( 'NONE', #146 ) ;
#171 = LOCAL_TIME ( 10, 21, 2.000000000000000000, #225 ) ;
#172 = APPROVAL_PERSON_ORGANIZATION ( #92, #233, #201 ) ;
#173 = PRODUCT_DEFINITION_SHAPE ( 'NONE', 'NONE',  #17 ) ;
#174 = EDGE_LOOP ( 'NONE', ( #39, #221, #228, #9 ) ) ;
#175 = ORIENTED_EDGE ( 'NONE', *, *, #20, .T. ) ;
#176 = CALENDAR_DATE ( 2017, 31, 1 ) ;
#177 = MECHANICAL_CONTEXT ( 'NONE', #180, 'mechanical' ) ;
#178 = PERSON_AND_ORGANIZATION_ROLE ( 'creator' ) ;
#179 = VECTOR ( 'NONE', #164, 1000.000000000000000 ) ;
#180 = APPLICATION_CONTEXT ( 'configuration controlled 3d designs of mechanical parts and assemblies' ) ;
#181 = EDGE_LOOP ( 'NONE', ( #192, #165, #211, #18 ) ) ;
#182 = ADVANCED_FACE ( 'NONE', ( #199 ), #87, .T. ) ;
#183 = FACE_OUTER_BOUND ( 'NONE', #15, .T. ) ;
#184 = PRODUCT ( 'Web Model 47945', 'Web Model 47945', '', ( #177 ) ) ;
#185 = ADVANCED_BREP_SHAPE_REPRESENTATION ( 'Web Model 47945', ( #68, #110 ), #6 ) ;
#186 = DIRECTION ( 'NONE',  ( 0.0000000000000000000, 1.000000000000000000, 0.0000000000000000000 ) ) ;
#187 = VECTOR ( 'NONE', #91, 1000.000000000000000 ) ;
#188 = CALENDAR_DATE ( 2017, 31, 1 ) ;
#189 = AXIS2_PLACEMENT_3D ( 'NONE', #217, #8, #141 ) ;
#190 = COORDINATED_UNIVERSAL_TIME_OFFSET ( 5, 0, .BEHIND. ) ;
#191 = ORGANIZATION ( 'UNSPECIFIED', 'UNSPECIFIED', '' ) ;
#192 = ORIENTED_EDGE ( 'NONE', *, *, #43, .F. ) ;
#193 = EDGE_CURVE ( 'NONE', #112, #2, #204, .T. ) ;
#194 = PLANE ( 'NONE',  #215 ) ;
#195 = SECURITY_CLASSIFICATION_LEVEL ( 'unclassified' ) ;
#196 = DIRECTION ( 'NONE',  ( -1.000000000000000000, -0.0000000000000000000, -0.0000000000000000000 ) ) ;
#197 = ORIENTED_EDGE ( 'NONE', *, *, #71, .F. ) ;
#198 = CARTESIAN_POINT ( 'NONE',  ( 0.0000000000000000000, 0.0000000000000000000, -4.000000000000000000 ) ) ;
#199 = FACE_OUTER_BOUND ( 'NONE', #181, .T. ) ;
#200 = PERSON_AND_ORGANIZATION_ROLE ( 'design_owner' ) ;
#201 = APPROVAL_ROLE ( '' ) ;
#202 = DIRECTION ( 'NONE',  ( 0.0000000000000000000, 0.0000000000000000000, 1.000000000000000000 ) ) ;
#203 = ORIENTED_EDGE ( 'NONE', *, *, #111, .T. ) ;
#204 = LINE ( 'NONE', #234, #90 ) ;
#205 = DIRECTION ( 'NONE',  ( 1.000000000000000000, 0.0000000000000000000, 0.0000000000000000000 ) ) ;
#206 = ORIENTED_EDGE ( 'NONE', *, *, #38, .F. ) ;
#207 = EDGE_CURVE ( 'NONE', #53, #70, #95, .T. ) ;
#208 = CC_DESIGN_PERSON_AND_ORGANIZATION_ASSIGNMENT ( #26, #82, ( #218 ) ) ;
#209 = ORIENTED_EDGE ( 'NONE', *, *, #193, .F. ) ;
#210 = APPROVAL_PERSON_ORGANIZATION ( #36, #78, #148 ) ;
#211 = ORIENTED_EDGE ( 'NONE', *, *, #85, .T. ) ;
#212 = CC_DESIGN_PERSON_AND_ORGANIZATION_ASSIGNMENT ( #122, #200, ( #184 ) ) ;
#213 = CARTESIAN_POINT ( 'NONE',  ( 0.0000000000000000000, 50.00000000000000000, -4.000000000000000000 ) ) ;
#214 = LINE ( 'NONE', #100, #125 ) ;
#215 = AXIS2_PLACEMENT_3D ( 'NONE', #213, #97, #114 ) ;
#216 = DATE_TIME_ROLE ( 'creation_date' ) ;
#217 = CARTESIAN_POINT ( 'NONE',  ( 0.0000000000000000000, 0.0000000000000000000, -4.000000000000000000 ) ) ;
#218 = SECURITY_CLASSIFICATION ( '', '', #195 ) ;
#219 = DIRECTION ( 'NONE',  ( 0.0000000000000000000, -1.000000000000000000, 0.0000000000000000000 ) ) ;
#220 = DIRECTION ( 'NONE',  ( -0.0000000000000000000, -1.000000000000000000, -0.0000000000000000000 ) ) ;
#221 = ORIENTED_EDGE ( 'NONE', *, *, #43, .T. ) ;
#222 = CC_DESIGN_PERSON_AND_ORGANIZATION_ASSIGNMENT ( #72, #178, ( #17 ) ) ;
#223 = LOCAL_TIME ( 10, 21, 2.000000000000000000, #25 ) ;
#224 = CLOSED_SHELL ( 'NONE', ( #34, #64, #14, #182, #37, #107 ) ) ;
#225 = COORDINATED_UNIVERSAL_TIME_OFFSET ( 5, 0, .BEHIND. ) ;
#226 = DIRECTION ( 'NONE',  ( 0.0000000000000000000, 0.0000000000000000000, -1.000000000000000000 ) ) ;
#227 = LINE ( 'NONE', #229, #96 ) ;
#228 = ORIENTED_EDGE ( 'NONE', *, *, #207, .T. ) ;
#229 = CARTESIAN_POINT ( 'NONE',  ( 50.00000000000000000, 0.0000000000000000000, -4.000000000000000000 ) ) ;
#230 = UNCERTAINTY_MEASURE_WITH_UNIT (LENGTH_MEASURE( 1.000000000000000100E-005 ), #46, 'distance_accuracy_value', 'NONE');
#231 = ORIENTED_EDGE ( 'NONE', *, *, #48, .F. ) ;
#232 = ORIENTED_EDGE ( 'NONE', *, *, #38, .T. ) ;
#233 = APPROVAL ( #143, 'UNSPECIFIED' ) ;
#234 = CARTESIAN_POINT ( 'NONE',  ( 0.0000000000000000000, 0.0000000000000000000, 0.0000000000000000000 ) ) ;
#235 = PLANE ( 'NONE',  #189 ) ;
#236 = PERSON_AND_ORGANIZATION_ROLE ( 'creator' ) ;
#237 = ORIENTED_EDGE ( 'NONE', *, *, #10, .T. ) ;
ENDSEC;
END-ISO-10303-21;
