ISO-10303-21;
HEADER;
FILE_DESCRIPTION (( 'STEP AP203' ),
    '1' );
FILE_NAME ('Web Model 45570_11926.step',
    '2019-01-07T15:32:26',
    ( '' ),
    ( '' ),
    'SwSTEP 2.0',
    'SolidWorks 2016',
    '' );
FILE_SCHEMA (( 'CONFIG_CONTROL_DESIGN' ));
ENDSEC;

DATA;
#1 = PERSON_AND_ORGANIZATION_ROLE ( 'design_owner' ) ;
#2 = EDGE_CURVE ( 'NONE', #134, #20, #57, .T. ) ;
#3 = CARTESIAN_POINT ( 'NONE',  ( 20.00000000000000000, 2.449293598294706500E-015, 2.000000000000000000 ) ) ;
#4 = ORIENTED_EDGE ( 'NONE', *, *, #128, .F. ) ;
#5 = PLANE ( 'NONE',  #95 ) ;
#6 = PERSON_AND_ORGANIZATION ( #99, #60 ) ;
#7 = CARTESIAN_POINT ( 'NONE',  ( 0.0000000000000000000, 0.0000000000000000000, 0.0000000000000000000 ) ) ;
#8 = EDGE_CURVE ( 'NONE', #20, #149, #62, .T. ) ;
#9 = APPLICATION_PROTOCOL_DEFINITION ( 'international standard', 'config_control_design', 1994, #154 ) ;
#10 = ORIENTED_EDGE ( 'NONE', *, *, #44, .T. ) ;
#11 = DIRECTION ( 'NONE',  ( 1.000000000000000000, 0.0000000000000000000, 0.0000000000000000000 ) ) ;
#12 = CC_DESIGN_APPROVAL ( #165, ( #108 ) ) ;
#13 = CARTESIAN_POINT ( 'NONE',  ( 0.0000000000000000000, 0.0000000000000000000, 2.000000000000000000 ) ) ;
#14 = CIRCLE ( 'NONE', #73, 20.00000000000000000 ) ;
#15 = APPROVAL_DATE_TIME ( #106, #105 ) ;
#16 = CALENDAR_DATE ( 2019, 7, 1 ) ;
#17 = EDGE_LOOP ( 'NONE', ( #162, #53 ) ) ;
#18 = ADVANCED_FACE ( 'NONE', ( #71 ), #70, .T. ) ;
#19 = ADVANCED_FACE ( 'NONE', ( #61 ), #23, .T. ) ;
#20 = VERTEX_POINT ( 'NONE', #3 ) ;
#21 = CC_DESIGN_SECURITY_CLASSIFICATION ( #108, ( #42 ) ) ;
#22 = PERSON_AND_ORGANIZATION ( #99, #60 ) ;
#23 = CYLINDRICAL_SURFACE ( 'NONE', #36, 20.00000000000000000 ) ;
#24 = FACE_OUTER_BOUND ( 'NONE', #130, .T. ) ;
#25 = APPROVAL_PERSON_ORGANIZATION ( #96, #161, #144 ) ;
#26 = VECTOR ( 'NONE', #131, 1000.000000000000000 ) ;
#27 = APPROVAL_PERSON_ORGANIZATION ( #172, #165, #173 ) ;
#28 = AXIS2_PLACEMENT_3D ( 'NONE', #117, #83, #30 ) ;
#29 = ADVANCED_FACE ( 'NONE', ( #175 ), #5, .F. ) ;
#30 = DIRECTION ( 'NONE',  ( 1.000000000000000000, 0.0000000000000000000, -0.0000000000000000000 ) ) ;
#31 = CARTESIAN_POINT ( 'NONE',  ( -20.00000000000000000, 0.0000000000000000000, 2.000000000000000000 ) ) ;
#32 = CALENDAR_DATE ( 2019, 7, 1 ) ;
#33 = CIRCLE ( 'NONE', #138, 20.00000000000000000 ) ;
#34 = LOCAL_TIME ( 10, 32, 26.00000000000000000, #72 ) ;
#35 = UNCERTAINTY_MEASURE_WITH_UNIT (LENGTH_MEASURE( 1.000000000000000100E-005 ), #152, 'distance_accuracy_value', 'NONE');
#36 = AXIS2_PLACEMENT_3D ( 'NONE', #79, #88, #45 ) ;
#37 = AXIS2_PLACEMENT_3D ( 'NONE', #167, #109, #171 ) ;
#38 = APPROVAL_DATE_TIME ( #54, #161 ) ;
#39 = VERTEX_POINT ( 'NONE', #66 ) ;
#40 = DIRECTION ( 'NONE',  ( 1.000000000000000000, 0.0000000000000000000, 0.0000000000000000000 ) ) ;
#41 = PERSON_AND_ORGANIZATION_ROLE ( 'creator' ) ;
#42 = PRODUCT_DEFINITION_FORMATION_WITH_SPECIFIED_SOURCE ( 'ANY', '', #75, .NOT_KNOWN. ) ;
#43 = ORIENTED_EDGE ( 'NONE', *, *, #122, .T. ) ;
#44 = EDGE_CURVE ( 'NONE', #39, #149, #164, .T. ) ;
#45 = DIRECTION ( 'NONE',  ( -1.000000000000000000, 0.0000000000000000000, 0.0000000000000000000 ) ) ;
#46 = CARTESIAN_POINT ( 'NONE',  ( 0.0000000000000000000, 0.0000000000000000000, -2.000000000000000000 ) ) ;
#47 = CC_DESIGN_PERSON_AND_ORGANIZATION_ASSIGNMENT ( #22, #89, ( #42 ) ) ;
#48 = CARTESIAN_POINT ( 'NONE',  ( 0.0000000000000000000, 0.0000000000000000000, -2.000000000000000000 ) ) ;
#49 = DIRECTION ( 'NONE',  ( 0.0000000000000000000, 0.0000000000000000000, 1.000000000000000000 ) ) ;
#50 = ORIENTED_EDGE ( 'NONE', *, *, #128, .T. ) ;
#51 = CC_DESIGN_PERSON_AND_ORGANIZATION_ASSIGNMENT ( #6, #90, ( #114 ) ) ;
#52 = DESIGN_CONTEXT ( 'detailed design', #154, 'design' ) ;
#53 = ORIENTED_EDGE ( 'NONE', *, *, #77, .F. ) ;
#54 = DATE_AND_TIME ( #32, #155 ) ;
#55 = DIRECTION ( 'NONE',  ( 0.0000000000000000000, 0.0000000000000000000, 1.000000000000000000 ) ) ;
#56 = DIRECTION ( 'NONE',  ( 1.000000000000000000, 0.0000000000000000000, 0.0000000000000000000 ) ) ;
#57 = CIRCLE ( 'NONE', #135, 20.00000000000000000 ) ;
#58 = DIRECTION ( 'NONE',  ( 1.000000000000000000, 0.0000000000000000000, -0.0000000000000000000 ) ) ;
#59 = PRODUCT_RELATED_PRODUCT_CATEGORY ( 'detail', '', ( #75 ) ) ;
#60 = ORGANIZATION ( 'UNSPECIFIED', 'UNSPECIFIED', '' ) ;
#61 = FACE_OUTER_BOUND ( 'NONE', #113, .T. ) ;
#62 = LINE ( 'NONE', #69, #26 ) ;
#63 = APPROVAL_DATE_TIME ( #169, #165 ) ;
#64 = PERSON_AND_ORGANIZATION_ROLE ( 'classification_officer' ) ;
#65 =( NAMED_UNIT ( * ) SI_UNIT ( $, .STERADIAN. ) SOLID_ANGLE_UNIT ( ) );
#66 = CARTESIAN_POINT ( 'NONE',  ( -20.00000000000000000, 0.0000000000000000000, -2.000000000000000000 ) ) ;
#67 = DATE_AND_TIME ( #16, #121 ) ;
#68 = MECHANICAL_CONTEXT ( 'NONE', #125, 'mechanical' ) ;
#69 = CARTESIAN_POINT ( 'NONE',  ( 20.00000000000000000, 2.449293598294706500E-015, 2.000000000000000000 ) ) ;
#70 = PLANE ( 'NONE',  #28 ) ;
#71 = FACE_OUTER_BOUND ( 'NONE', #115, .T. ) ;
#72 = COORDINATED_UNIVERSAL_TIME_OFFSET ( 5, 0, .BEHIND. ) ;
#73 = AXIS2_PLACEMENT_3D ( 'NONE', #13, #151, #168 ) ;
#74 = DIRECTION ( 'NONE',  ( 1.000000000000000000, 0.0000000000000000000, 0.0000000000000000000 ) ) ;
#75 = PRODUCT ( 'Web Model 45570_11926', 'Web Model 45570_11926', '', ( #68 ) ) ;
#76 = DATE_AND_TIME ( #107, #143 ) ;
#77 = EDGE_CURVE ( 'NONE', #149, #39, #33, .T. ) ;
#78 = APPROVAL_STATUS ( 'not_yet_approved' ) ;
#79 = CARTESIAN_POINT ( 'NONE',  ( 0.0000000000000000000, 0.0000000000000000000, 2.000000000000000000 ) ) ;
#80 = DATE_TIME_ROLE ( 'classification_date' ) ;
#81 = CALENDAR_DATE ( 2019, 7, 1 ) ;
#82 =( GEOMETRIC_REPRESENTATION_CONTEXT ( 3 ) GLOBAL_UNCERTAINTY_ASSIGNED_CONTEXT ( ( #35 ) ) GLOBAL_UNIT_ASSIGNED_CONTEXT ( ( #152, #85, #65 ) ) REPRESENTATION_CONTEXT ( 'NONE', 'WORKASPACE' ) );
#83 = DIRECTION ( 'NONE',  ( 0.0000000000000000000, 0.0000000000000000000, 1.000000000000000000 ) ) ;
#84 = ORIENTED_EDGE ( 'NONE', *, *, #2, .F. ) ;
#85 =( NAMED_UNIT ( * ) PLANE_ANGLE_UNIT ( ) SI_UNIT ( $, .RADIAN. ) );
#86 = ORIENTED_EDGE ( 'NONE', *, *, #122, .F. ) ;
#87 = CC_DESIGN_PERSON_AND_ORGANIZATION_ASSIGNMENT ( #120, #1, ( #75 ) ) ;
#88 = DIRECTION ( 'NONE',  ( -0.0000000000000000000, -0.0000000000000000000, -1.000000000000000000 ) ) ;
#89 = PERSON_AND_ORGANIZATION_ROLE ( 'design_supplier' ) ;
#90 = PERSON_AND_ORGANIZATION_ROLE ( 'creator' ) ;
#91 = ORIENTED_EDGE ( 'NONE', *, *, #8, .T. ) ;
#92 = SHAPE_DEFINITION_REPRESENTATION ( #147, #158 ) ;
#93 = DIRECTION ( 'NONE',  ( -0.0000000000000000000, -0.0000000000000000000, -1.000000000000000000 ) ) ;
#94 = ADVANCED_FACE ( 'NONE', ( #24 ), #98, .T. ) ;
#95 = AXIS2_PLACEMENT_3D ( 'NONE', #46, #133, #58 ) ;
#96 = PERSON_AND_ORGANIZATION ( #99, #60 ) ;
#97 = CALENDAR_DATE ( 2019, 7, 1 ) ;
#98 = CYLINDRICAL_SURFACE ( 'NONE', #37, 20.00000000000000000 ) ;
#99 = PERSON ( 'UNSPECIFIED', 'UNSPECIFIED', 'UNSPECIFIED', ('UNSPECIFIED'), ('UNSPECIFIED'), ('UNSPECIFIED') ) ;
#100 = APPLICATION_PROTOCOL_DEFINITION ( 'international standard', 'config_control_design', 1994, #125 ) ;
#101 = APPROVAL_STATUS ( 'not_yet_approved' ) ;
#102 = CARTESIAN_POINT ( 'NONE',  ( 0.0000000000000000000, 0.0000000000000000000, 2.000000000000000000 ) ) ;
#103 = APPROVAL_PERSON_ORGANIZATION ( #141, #105, #159 ) ;
#104 = COORDINATED_UNIVERSAL_TIME_OFFSET ( 5, 0, .BEHIND. ) ;
#105 = APPROVAL ( #112, 'UNSPECIFIED' ) ;
#106 = DATE_AND_TIME ( #81, #34 ) ;
#107 = CALENDAR_DATE ( 2019, 7, 1 ) ;
#108 = SECURITY_CLASSIFICATION ( '', '', #160 ) ;
#109 = DIRECTION ( 'NONE',  ( -0.0000000000000000000, -0.0000000000000000000, -1.000000000000000000 ) ) ;
#110 = COORDINATED_UNIVERSAL_TIME_OFFSET ( 5, 0, .BEHIND. ) ;
#111 = AXIS2_PLACEMENT_3D ( 'NONE', #156, #49, #74 ) ;
#112 = APPROVAL_STATUS ( 'not_yet_approved' ) ;
#113 = EDGE_LOOP ( 'NONE', ( #86, #91, #124, #4 ) ) ;
#114 = PRODUCT_DEFINITION ( 'UNKNOWN', '', #42, #52 ) ;
#115 = EDGE_LOOP ( 'NONE', ( #123, #43 ) ) ;
#116 = CC_DESIGN_PERSON_AND_ORGANIZATION_ASSIGNMENT ( #163, #64, ( #108 ) ) ;
#117 = CARTESIAN_POINT ( 'NONE',  ( 0.0000000000000000000, 0.0000000000000000000, 2.000000000000000000 ) ) ;
#118 = CARTESIAN_POINT ( 'NONE',  ( -20.00000000000000000, 0.0000000000000000000, 2.000000000000000000 ) ) ;
#119 = AXIS2_PLACEMENT_3D ( 'NONE', #7, #145, #56 ) ;
#120 = PERSON_AND_ORGANIZATION ( #99, #60 ) ;
#121 = LOCAL_TIME ( 10, 32, 26.00000000000000000, #110 ) ;
#122 = EDGE_CURVE ( 'NONE', #20, #134, #14, .T. ) ;
#123 = ORIENTED_EDGE ( 'NONE', *, *, #2, .T. ) ;
#124 = ORIENTED_EDGE ( 'NONE', *, *, #77, .T. ) ;
#125 = APPLICATION_CONTEXT ( 'configuration controlled 3d designs of mechanical parts and assemblies' ) ;
#126 = CC_DESIGN_APPROVAL ( #105, ( #114 ) ) ;
#127 = COORDINATED_UNIVERSAL_TIME_OFFSET ( 5, 0, .BEHIND. ) ;
#128 = EDGE_CURVE ( 'NONE', #134, #39, #170, .T. ) ;
#129 = COORDINATED_UNIVERSAL_TIME_OFFSET ( 5, 0, .BEHIND. ) ;
#130 = EDGE_LOOP ( 'NONE', ( #137, #84, #50, #10 ) ) ;
#131 = DIRECTION ( 'NONE',  ( -0.0000000000000000000, -0.0000000000000000000, -1.000000000000000000 ) ) ;
#132 = CC_DESIGN_PERSON_AND_ORGANIZATION_ASSIGNMENT ( #174, #41, ( #42 ) ) ;
#133 = DIRECTION ( 'NONE',  ( 0.0000000000000000000, 0.0000000000000000000, 1.000000000000000000 ) ) ;
#134 = VERTEX_POINT ( 'NONE', #31 ) ;
#135 = AXIS2_PLACEMENT_3D ( 'NONE', #102, #55, #11 ) ;
#136 = CARTESIAN_POINT ( 'NONE',  ( 20.00000000000000000, 2.449293598294706500E-015, -2.000000000000000000 ) ) ;
#137 = ORIENTED_EDGE ( 'NONE', *, *, #8, .F. ) ;
#138 = AXIS2_PLACEMENT_3D ( 'NONE', #48, #157, #40 ) ;
#139 = CC_DESIGN_APPROVAL ( #161, ( #42 ) ) ;
#140 = MANIFOLD_SOLID_BREP ( 'Boss-Extrude1', #146 ) ;
#141 = PERSON_AND_ORGANIZATION ( #99, #60 ) ;
#142 = DATE_TIME_ROLE ( 'creation_date' ) ;
#143 = LOCAL_TIME ( 10, 32, 26.00000000000000000, #127 ) ;
#144 = APPROVAL_ROLE ( '' ) ;
#145 = DIRECTION ( 'NONE',  ( 0.0000000000000000000, 0.0000000000000000000, 1.000000000000000000 ) ) ;
#146 = CLOSED_SHELL ( 'NONE', ( #19, #94, #18, #29 ) ) ;
#147 = PRODUCT_DEFINITION_SHAPE ( 'NONE', 'NONE',  #114 ) ;
#148 = CC_DESIGN_DATE_AND_TIME_ASSIGNMENT ( #76, #142, ( #114 ) ) ;
#149 = VERTEX_POINT ( 'NONE', #136 ) ;
#150 = CC_DESIGN_DATE_AND_TIME_ASSIGNMENT ( #67, #80, ( #108 ) ) ;
#151 = DIRECTION ( 'NONE',  ( 0.0000000000000000000, 0.0000000000000000000, 1.000000000000000000 ) ) ;
#152 =( LENGTH_UNIT ( ) NAMED_UNIT ( * ) SI_UNIT ( .MILLI., .METRE. ) );
#153 = VECTOR ( 'NONE', #93, 1000.000000000000000 ) ;
#154 = APPLICATION_CONTEXT ( 'configuration controlled 3d designs of mechanical parts and assemblies' ) ;
#155 = LOCAL_TIME ( 10, 32, 26.00000000000000000, #104 ) ;
#156 = CARTESIAN_POINT ( 'NONE',  ( 0.0000000000000000000, 0.0000000000000000000, -2.000000000000000000 ) ) ;
#157 = DIRECTION ( 'NONE',  ( 0.0000000000000000000, 0.0000000000000000000, 1.000000000000000000 ) ) ;
#158 = ADVANCED_BREP_SHAPE_REPRESENTATION ( 'Web Model 45570_11926', ( #140, #119 ), #82 ) ;
#159 = APPROVAL_ROLE ( '' ) ;
#160 = SECURITY_CLASSIFICATION_LEVEL ( 'unclassified' ) ;
#161 = APPROVAL ( #78, 'UNSPECIFIED' ) ;
#162 = ORIENTED_EDGE ( 'NONE', *, *, #44, .F. ) ;
#163 = PERSON_AND_ORGANIZATION ( #99, #60 ) ;
#164 = CIRCLE ( 'NONE', #111, 20.00000000000000000 ) ;
#165 = APPROVAL ( #101, 'UNSPECIFIED' ) ;
#166 = LOCAL_TIME ( 10, 32, 26.00000000000000000, #129 ) ;
#167 = CARTESIAN_POINT ( 'NONE',  ( 0.0000000000000000000, 0.0000000000000000000, 2.000000000000000000 ) ) ;
#168 = DIRECTION ( 'NONE',  ( 1.000000000000000000, 0.0000000000000000000, 0.0000000000000000000 ) ) ;
#169 = DATE_AND_TIME ( #97, #166 ) ;
#170 = LINE ( 'NONE', #118, #153 ) ;
#171 = DIRECTION ( 'NONE',  ( -1.000000000000000000, 0.0000000000000000000, 0.0000000000000000000 ) ) ;
#172 = PERSON_AND_ORGANIZATION ( #99, #60 ) ;
#173 = APPROVAL_ROLE ( '' ) ;
#174 = PERSON_AND_ORGANIZATION ( #99, #60 ) ;
#175 = FACE_OUTER_BOUND ( 'NONE', #17, .T. ) ;
ENDSEC;
END-ISO-10303-21;
