ISO-10303-21;
HEADER;
FILE_DESCRIPTION (( 'STEP AP203' ),
    '1' );
FILE_NAME ('Web Model 64402MX_41046.step',
    '2017-10-30T13:09:25',
    ( '' ),
    ( '' ),
    'SwSTEP 2.0',
    'SolidWorks 2016',
    '' );
FILE_SCHEMA (( 'CONFIG_CONTROL_DESIGN' ));
ENDSEC;

DATA;
#1 = CC_DESIGN_DATE_AND_TIME_ASSIGNMENT ( #176, #200, ( #189 ) ) ;
#2 = CARTESIAN_POINT ( 'NONE',  ( 12.49999999999999800, -12.49999999999999600, 4.750000000000000000 ) ) ;
#3 = DIRECTION ( 'NONE',  ( 1.000000000000000000, 1.387778780781445700E-016, -0.0000000000000000000 ) ) ;
#4 = DIRECTION ( 'NONE',  ( -0.0000000000000000000, -1.000000000000000000, -0.0000000000000000000 ) ) ;
#5 = CC_DESIGN_PERSON_AND_ORGANIZATION_ASSIGNMENT ( #46, #123, ( #15 ) ) ;
#6 = LINE ( 'NONE', #137, #73 ) ;
#7 = ORIENTED_EDGE ( 'NONE', *, *, #94, .T. ) ;
#8 = APPLICATION_PROTOCOL_DEFINITION ( 'international standard', 'config_control_design', 1994, #101 ) ;
#9 = DIRECTION ( 'NONE',  ( 1.000000000000000000, 0.0000000000000000000, 0.0000000000000000000 ) ) ;
#10 = ADVANCED_FACE ( 'NONE', ( #84 ), #139, .F. ) ;
#11 = EDGE_CURVE ( 'NONE', #35, #74, #127, .T. ) ;
#12 =( LENGTH_UNIT ( ) NAMED_UNIT ( * ) SI_UNIT ( .MILLI., .METRE. ) );
#13 = EDGE_CURVE ( 'NONE', #199, #35, #214, .T. ) ;
#14 = EDGE_CURVE ( 'NONE', #74, #159, #6, .T. ) ;
#15 = PRODUCT ( 'Web Model 64402MX_41046', 'Web Model 64402MX_41046', '', ( #64 ) ) ;
#16 = CALENDAR_DATE ( 2017, 30, 10 ) ;
#17 = ORIENTED_EDGE ( 'NONE', *, *, #14, .F. ) ;
#18 = ORIENTED_EDGE ( 'NONE', *, *, #52, .T. ) ;
#19 = CALENDAR_DATE ( 2017, 30, 10 ) ;
#20 = ORIENTED_EDGE ( 'NONE', *, *, #219, .T. ) ;
#21 = ORIENTED_EDGE ( 'NONE', *, *, #169, .F. ) ;
#22 = ORIENTED_EDGE ( 'NONE', *, *, #11, .F. ) ;
#23 = DIRECTION ( 'NONE',  ( -0.0000000000000000000, -0.0000000000000000000, -1.000000000000000000 ) ) ;
#24 = CARTESIAN_POINT ( 'NONE',  ( 12.49999999999999800, -12.49999999999999600, 4.750000000000000000 ) ) ;
#25 = CC_DESIGN_PERSON_AND_ORGANIZATION_ASSIGNMENT ( #51, #111, ( #189 ) ) ;
#26 = LINE ( 'NONE', #121, #202 ) ;
#27 = EDGE_CURVE ( 'NONE', #212, #199, #117, .T. ) ;
#28 =( NAMED_UNIT ( * ) PLANE_ANGLE_UNIT ( ) SI_UNIT ( $, .RADIAN. ) );
#29 = CARTESIAN_POINT ( 'NONE',  ( -12.50000000000000200, -12.50000000000000000, 4.750000000000000000 ) ) ;
#30 = VECTOR ( 'NONE', #144, 1000.000000000000000 ) ;
#31 = APPROVAL_STATUS ( 'not_yet_approved' ) ;
#32 = APPROVAL_DATE_TIME ( #165, #231 ) ;
#33 = MANIFOLD_SOLID_BREP ( 'Boss-Extrude1', #143 ) ;
#34 = PERSON_AND_ORGANIZATION ( #70, #185 ) ;
#35 = VERTEX_POINT ( 'NONE', #75 ) ;
#36 = AXIS2_PLACEMENT_3D ( 'NONE', #2, #59, #119 ) ;
#37 = LINE ( 'NONE', #29, #222 ) ;
#38 = LOCAL_TIME ( 9, 9, 25.00000000000000000, #142 ) ;
#39 = CARTESIAN_POINT ( 'NONE',  ( 12.49999999999999800, 12.50000000000000400, 4.750000000000000000 ) ) ;
#40 = EDGE_LOOP ( 'NONE', ( #203, #197, #92, #194 ) ) ;
#41 = EDGE_CURVE ( 'NONE', #191, #212, #26, .T. ) ;
#42 = LINE ( 'NONE', #55, #49 ) ;
#43 = APPLICATION_PROTOCOL_DEFINITION ( 'international standard', 'config_control_design', 1994, #226 ) ;
#44 = PLANE ( 'NONE',  #160 ) ;
#45 = APPROVAL_DATE_TIME ( #195, #221 ) ;
#46 = PERSON_AND_ORGANIZATION ( #70, #185 ) ;
#47 = CARTESIAN_POINT ( 'NONE',  ( 12.49999999999999800, 12.50000000000000400, 4.750000000000000000 ) ) ;
#48 = LOCAL_TIME ( 9, 9, 25.00000000000000000, #96 ) ;
#49 = VECTOR ( 'NONE', #220, 1000.000000000000000 ) ;
#50 = ORIENTED_EDGE ( 'NONE', *, *, #13, .F. ) ;
#51 = PERSON_AND_ORGANIZATION ( #70, #185 ) ;
#52 = EDGE_CURVE ( 'NONE', #53, #69, #42, .T. ) ;
#53 = VERTEX_POINT ( 'NONE', #98 ) ;
#54 = CC_DESIGN_DATE_AND_TIME_ASSIGNMENT ( #99, #86, ( #146 ) ) ;
#55 = CARTESIAN_POINT ( 'NONE',  ( 12.49999999999999800, -12.49999999999999600, -4.750000000000000000 ) ) ;
#56 = DIRECTION ( 'NONE',  ( 1.387778780781445700E-016, -1.000000000000000000, 0.0000000000000000000 ) ) ;
#57 = PRODUCT_DEFINITION_SHAPE ( 'NONE', 'NONE',  #146 ) ;
#58 = CARTESIAN_POINT ( 'NONE',  ( 12.49999999999999800, 12.50000000000000400, -4.750000000000000000 ) ) ;
#59 = DIRECTION ( 'NONE',  ( -1.387778780781445700E-016, 1.000000000000000000, 0.0000000000000000000 ) ) ;
#60 = APPROVAL_ROLE ( '' ) ;
#61 = FACE_OUTER_BOUND ( 'NONE', #105, .T. ) ;
#62 = EDGE_CURVE ( 'NONE', #199, #69, #152, .T. ) ;
#63 = DIRECTION ( 'NONE',  ( -0.0000000000000000000, -0.0000000000000000000, -1.000000000000000000 ) ) ;
#64 = MECHANICAL_CONTEXT ( 'NONE', #101, 'mechanical' ) ;
#65 = CC_DESIGN_PERSON_AND_ORGANIZATION_ASSIGNMENT ( #148, #129, ( #183 ) ) ;
#66 = LOCAL_TIME ( 9, 9, 25.00000000000000000, #130 ) ;
#67 = PERSON_AND_ORGANIZATION_ROLE ( 'creator' ) ;
#68 = VECTOR ( 'NONE', #175, 1000.000000000000000 ) ;
#69 = VERTEX_POINT ( 'NONE', #154 ) ;
#70 = PERSON ( 'UNSPECIFIED', 'UNSPECIFIED', 'UNSPECIFIED', ('UNSPECIFIED'), ('UNSPECIFIED'), ('UNSPECIFIED') ) ;
#71 = VECTOR ( 'NONE', #78, 1000.000000000000000 ) ;
#72 = ORIENTED_EDGE ( 'NONE', *, *, #52, .F. ) ;
#73 = VECTOR ( 'NONE', #237, 1000.000000000000000 ) ;
#74 = VERTEX_POINT ( 'NONE', #193 ) ;
#75 = CARTESIAN_POINT ( 'NONE',  ( -12.50000000000000200, 12.50000000000000000, 4.750000000000000000 ) ) ;
#76 = ORIENTED_EDGE ( 'NONE', *, *, #27, .F. ) ;
#77 = ORIENTED_EDGE ( 'NONE', *, *, #62, .F. ) ;
#78 = DIRECTION ( 'NONE',  ( 0.0000000000000000000, 1.000000000000000000, 0.0000000000000000000 ) ) ;
#79 = ADVANCED_FACE ( 'NONE', ( #188 ), #122, .F. ) ;
#80 = DIRECTION ( 'NONE',  ( 1.000000000000000000, 1.387778780781445700E-016, 0.0000000000000000000 ) ) ;
#81 = CARTESIAN_POINT ( 'NONE',  ( 12.49999999999999800, -12.49999999999999600, 4.750000000000000000 ) ) ;
#82 = CC_DESIGN_APPROVAL ( #221, ( #189 ) ) ;
#83 = APPROVAL_DATE_TIME ( #136, #93 ) ;
#84 = FACE_OUTER_BOUND ( 'NONE', #40, .T. ) ;
#85 = DIRECTION ( 'NONE',  ( 0.0000000000000000000, 0.0000000000000000000, 1.000000000000000000 ) ) ;
#86 = DATE_TIME_ROLE ( 'creation_date' ) ;
#87 = COORDINATED_UNIVERSAL_TIME_OFFSET ( 5, 0, .BEHIND. ) ;
#88 = VECTOR ( 'NONE', #3, 1000.000000000000000 ) ;
#89 = AXIS2_PLACEMENT_3D ( 'NONE', #179, #182, #157 ) ;
#90 = SECURITY_CLASSIFICATION_LEVEL ( 'unclassified' ) ;
#91 = SHAPE_DEFINITION_REPRESENTATION ( #57, #225 ) ;
#92 = ORIENTED_EDGE ( 'NONE', *, *, #41, .F. ) ;
#93 = APPROVAL ( #177, 'UNSPECIFIED' ) ;
#94 = EDGE_CURVE ( 'NONE', #69, #74, #133, .T. ) ;
#95 = ORIENTED_EDGE ( 'NONE', *, *, #27, .T. ) ;
#96 = COORDINATED_UNIVERSAL_TIME_OFFSET ( 5, 0, .BEHIND. ) ;
#97 = AXIS2_PLACEMENT_3D ( 'NONE', #126, #206, #103 ) ;
#98 = CARTESIAN_POINT ( 'NONE',  ( 12.49999999999999800, -12.49999999999999600, -4.750000000000000000 ) ) ;
#99 = DATE_AND_TIME ( #110, #180 ) ;
#100 = EDGE_LOOP ( 'NONE', ( #20, #134, #95, #113 ) ) ;
#101 = APPLICATION_CONTEXT ( 'configuration controlled 3d designs of mechanical parts and assemblies' ) ;
#102 = DESIGN_CONTEXT ( 'detailed design', #226, 'design' ) ;
#103 = DIRECTION ( 'NONE',  ( 1.000000000000000000, 0.0000000000000000000, -0.0000000000000000000 ) ) ;
#104 =( NAMED_UNIT ( * ) SI_UNIT ( $, .STERADIAN. ) SOLID_ANGLE_UNIT ( ) );
#105 = EDGE_LOOP ( 'NONE', ( #147, #207, #153, #204 ) ) ;
#106 = PLANE ( 'NONE',  #216 ) ;
#107 = ADVANCED_FACE ( 'NONE', ( #140 ), #223, .T. ) ;
#108 = CARTESIAN_POINT ( 'NONE',  ( 12.49999999999999800, -12.49999999999999600, 4.750000000000000000 ) ) ;
#109 = CC_DESIGN_APPROVAL ( #93, ( #146 ) ) ;
#110 = CALENDAR_DATE ( 2017, 30, 10 ) ;
#111 = PERSON_AND_ORGANIZATION_ROLE ( 'classification_officer' ) ;
#112 = APPROVAL_ROLE ( '' ) ;
#113 = ORIENTED_EDGE ( 'NONE', *, *, #13, .T. ) ;
#114 = EDGE_CURVE ( 'NONE', #212, #53, #229, .T. ) ;
#115 = PERSON_AND_ORGANIZATION ( #70, #185 ) ;
#116 = APPROVAL_PERSON_ORGANIZATION ( #151, #231, #112 ) ;
#117 = LINE ( 'NONE', #24, #71 ) ;
#118 = CARTESIAN_POINT ( 'NONE',  ( -12.50000000000000200, 12.50000000000000000, 4.750000000000000000 ) ) ;
#119 = DIRECTION ( 'NONE',  ( -1.000000000000000000, -1.387778780781445700E-016, 0.0000000000000000000 ) ) ;
#120 = EDGE_CURVE ( 'NONE', #191, #159, #234, .T. ) ;
#121 = CARTESIAN_POINT ( 'NONE',  ( 12.49999999999999800, -12.49999999999999600, 4.750000000000000000 ) ) ;
#122 = PLANE ( 'NONE',  #138 ) ;
#123 = PERSON_AND_ORGANIZATION_ROLE ( 'design_owner' ) ;
#124 = CARTESIAN_POINT ( 'NONE',  ( -12.50000000000000200, -12.50000000000000000, -4.750000000000000000 ) ) ;
#125 = CARTESIAN_POINT ( 'NONE',  ( -12.50000000000000200, -12.50000000000000000, 4.750000000000000000 ) ) ;
#126 = CARTESIAN_POINT ( 'NONE',  ( 0.0000000000000000000, 0.0000000000000000000, -4.750000000000000000 ) ) ;
#127 = LINE ( 'NONE', #118, #163 ) ;
#128 = ORIENTED_EDGE ( 'NONE', *, *, #62, .T. ) ;
#129 = PERSON_AND_ORGANIZATION_ROLE ( 'design_supplier' ) ;
#130 = COORDINATED_UNIVERSAL_TIME_OFFSET ( 5, 0, .BEHIND. ) ;
#131 = VECTOR ( 'NONE', #174, 1000.000000000000000 ) ;
#132 = CC_DESIGN_PERSON_AND_ORGANIZATION_ASSIGNMENT ( #236, #67, ( #183 ) ) ;
#133 = LINE ( 'NONE', #58, #68 ) ;
#134 = ORIENTED_EDGE ( 'NONE', *, *, #41, .T. ) ;
#135 = LINE ( 'NONE', #227, #88 ) ;
#136 = DATE_AND_TIME ( #187, #38 ) ;
#137 = CARTESIAN_POINT ( 'NONE',  ( -12.50000000000000200, -12.50000000000000000, -4.750000000000000000 ) ) ;
#138 = AXIS2_PLACEMENT_3D ( 'NONE', #155, #56, #80 ) ;
#139 = PLANE ( 'NONE',  #36 ) ;
#140 = FACE_OUTER_BOUND ( 'NONE', #100, .T. ) ;
#141 = DIRECTION ( 'NONE',  ( 0.0000000000000000000, 0.0000000000000000000, -1.000000000000000000 ) ) ;
#142 = COORDINATED_UNIVERSAL_TIME_OFFSET ( 5, 0, .BEHIND. ) ;
#143 = CLOSED_SHELL ( 'NONE', ( #181, #10, #156, #79, #107, #218 ) ) ;
#144 = DIRECTION ( 'NONE',  ( -0.0000000000000000000, -0.0000000000000000000, -1.000000000000000000 ) ) ;
#145 = DIRECTION ( 'NONE',  ( 0.0000000000000000000, -0.0000000000000000000, 1.000000000000000000 ) ) ;
#146 = PRODUCT_DEFINITION ( 'UNKNOWN', '', #183, #102 ) ;
#147 = ORIENTED_EDGE ( 'NONE', *, *, #14, .T. ) ;
#148 = PERSON_AND_ORGANIZATION ( #70, #185 ) ;
#149 = ORIENTED_EDGE ( 'NONE', *, *, #114, .T. ) ;
#150 = CC_DESIGN_PERSON_AND_ORGANIZATION_ASSIGNMENT ( #34, #184, ( #146 ) ) ;
#151 = PERSON_AND_ORGANIZATION ( #70, #185 ) ;
#152 = LINE ( 'NONE', #39, #131 ) ;
#153 = ORIENTED_EDGE ( 'NONE', *, *, #219, .F. ) ;
#154 = CARTESIAN_POINT ( 'NONE',  ( 12.49999999999999800, 12.50000000000000400, -4.750000000000000000 ) ) ;
#155 = CARTESIAN_POINT ( 'NONE',  ( 12.49999999999999800, 12.50000000000000400, 4.750000000000000000 ) ) ;
#156 = ADVANCED_FACE ( 'NONE', ( #211 ), #44, .F. ) ;
#157 = DIRECTION ( 'NONE',  ( 1.000000000000000000, 0.0000000000000000000, 0.0000000000000000000 ) ) ;
#158 = DIRECTION ( 'NONE',  ( 1.000000000000000000, 0.0000000000000000000, -0.0000000000000000000 ) ) ;
#159 = VERTEX_POINT ( 'NONE', #124 ) ;
#160 = AXIS2_PLACEMENT_3D ( 'NONE', #161, #162, #85 ) ;
#161 = CARTESIAN_POINT ( 'NONE',  ( 12.49999999999999800, -12.49999999999999600, 4.750000000000000000 ) ) ;
#162 = DIRECTION ( 'NONE',  ( -1.000000000000000000, 0.0000000000000000000, 0.0000000000000000000 ) ) ;
#163 = VECTOR ( 'NONE', #23, 1000.000000000000000 ) ;
#164 = APPROVAL_ROLE ( '' ) ;
#165 = DATE_AND_TIME ( #19, #168 ) ;
#166 = ORIENTED_EDGE ( 'NONE', *, *, #94, .F. ) ;
#167 = AXIS2_PLACEMENT_3D ( 'NONE', #178, #145, #158 ) ;
#168 = LOCAL_TIME ( 9, 9, 25.00000000000000000, #87 ) ;
#169 = EDGE_CURVE ( 'NONE', #159, #53, #135, .T. ) ;
#170 = FACE_OUTER_BOUND ( 'NONE', #173, .T. ) ;
#171 = EDGE_LOOP ( 'NONE', ( #18, #77, #76, #149 ) ) ;
#172 = CARTESIAN_POINT ( 'NONE',  ( 12.49999999999999800, 12.50000000000000400, 4.750000000000000000 ) ) ;
#173 = EDGE_LOOP ( 'NONE', ( #17, #166, #72, #21 ) ) ;
#174 = DIRECTION ( 'NONE',  ( -0.0000000000000000000, -0.0000000000000000000, -1.000000000000000000 ) ) ;
#175 = DIRECTION ( 'NONE',  ( -1.000000000000000000, -1.387778780781445700E-016, 0.0000000000000000000 ) ) ;
#176 = DATE_AND_TIME ( #201, #48 ) ;
#177 = APPROVAL_STATUS ( 'not_yet_approved' ) ;
#178 = CARTESIAN_POINT ( 'NONE',  ( 0.0000000000000000000, 0.0000000000000000000, 4.750000000000000000 ) ) ;
#179 = CARTESIAN_POINT ( 'NONE',  ( 0.0000000000000000000, 0.0000000000000000000, 0.0000000000000000000 ) ) ;
#180 = LOCAL_TIME ( 9, 9, 25.00000000000000000, #215 ) ;
#181 = ADVANCED_FACE ( 'NONE', ( #61 ), #106, .F. ) ;
#182 = DIRECTION ( 'NONE',  ( 0.0000000000000000000, 0.0000000000000000000, 1.000000000000000000 ) ) ;
#183 = PRODUCT_DEFINITION_FORMATION_WITH_SPECIFIED_SOURCE ( 'ANY', '', #15, .NOT_KNOWN. ) ;
#184 = PERSON_AND_ORGANIZATION_ROLE ( 'creator' ) ;
#185 = ORGANIZATION ( 'UNSPECIFIED', 'UNSPECIFIED', '' ) ;
#186 = PRODUCT_RELATED_PRODUCT_CATEGORY ( 'detail', '', ( #15 ) ) ;
#187 = CALENDAR_DATE ( 2017, 30, 10 ) ;
#188 = FACE_OUTER_BOUND ( 'NONE', #210, .T. ) ;
#189 = SECURITY_CLASSIFICATION ( '', '', #90 ) ;
#190 = APPROVAL_PERSON_ORGANIZATION ( #232, #93, #60 ) ;
#191 = VERTEX_POINT ( 'NONE', #125 ) ;
#192 = DIRECTION ( 'NONE',  ( -1.000000000000000000, -1.387778780781445700E-016, 0.0000000000000000000 ) ) ;
#193 = CARTESIAN_POINT ( 'NONE',  ( -12.50000000000000200, 12.50000000000000000, -4.750000000000000000 ) ) ;
#194 = ORIENTED_EDGE ( 'NONE', *, *, #120, .T. ) ;
#195 = DATE_AND_TIME ( #16, #66 ) ;
#196 = VECTOR ( 'NONE', #192, 1000.000000000000000 ) ;
#197 = ORIENTED_EDGE ( 'NONE', *, *, #114, .F. ) ;
#198 = PLANE ( 'NONE',  #97 ) ;
#199 = VERTEX_POINT ( 'NONE', #47 ) ;
#200 = DATE_TIME_ROLE ( 'classification_date' ) ;
#201 = CALENDAR_DATE ( 2017, 30, 10 ) ;
#202 = VECTOR ( 'NONE', #205, 1000.000000000000000 ) ;
#203 = ORIENTED_EDGE ( 'NONE', *, *, #169, .T. ) ;
#204 = ORIENTED_EDGE ( 'NONE', *, *, #11, .T. ) ;
#205 = DIRECTION ( 'NONE',  ( 1.000000000000000000, 1.387778780781445700E-016, -0.0000000000000000000 ) ) ;
#206 = DIRECTION ( 'NONE',  ( 0.0000000000000000000, -0.0000000000000000000, 1.000000000000000000 ) ) ;
#207 = ORIENTED_EDGE ( 'NONE', *, *, #120, .F. ) ;
#208 = CARTESIAN_POINT ( 'NONE',  ( -12.50000000000000200, -12.50000000000000000, 4.750000000000000000 ) ) ;
#209 = VECTOR ( 'NONE', #63, 1000.000000000000000 ) ;
#210 = EDGE_LOOP ( 'NONE', ( #7, #22, #50, #128 ) ) ;
#211 = FACE_OUTER_BOUND ( 'NONE', #171, .T. ) ;
#212 = VERTEX_POINT ( 'NONE', #108 ) ;
#213 = APPROVAL_PERSON_ORGANIZATION ( #115, #221, #164 ) ;
#214 = LINE ( 'NONE', #172, #196 ) ;
#215 = COORDINATED_UNIVERSAL_TIME_OFFSET ( 5, 0, .BEHIND. ) ;
#216 = AXIS2_PLACEMENT_3D ( 'NONE', #224, #9, #141 ) ;
#217 = CC_DESIGN_APPROVAL ( #231, ( #183 ) ) ;
#218 = ADVANCED_FACE ( 'NONE', ( #170 ), #198, .F. ) ;
#219 = EDGE_CURVE ( 'NONE', #35, #191, #37, .T. ) ;
#220 = DIRECTION ( 'NONE',  ( 0.0000000000000000000, 1.000000000000000000, 0.0000000000000000000 ) ) ;
#221 = APPROVAL ( #230, 'UNSPECIFIED' ) ;
#222 = VECTOR ( 'NONE', #4, 1000.000000000000000 ) ;
#223 = PLANE ( 'NONE',  #167 ) ;
#224 = CARTESIAN_POINT ( 'NONE',  ( -12.50000000000000200, -12.50000000000000000, 4.750000000000000000 ) ) ;
#225 = ADVANCED_BREP_SHAPE_REPRESENTATION ( 'Web Model 64402MX_41046', ( #33, #89 ), #235 ) ;
#226 = APPLICATION_CONTEXT ( 'configuration controlled 3d designs of mechanical parts and assemblies' ) ;
#227 = CARTESIAN_POINT ( 'NONE',  ( 12.49999999999999800, -12.49999999999999600, -4.750000000000000000 ) ) ;
#228 = UNCERTAINTY_MEASURE_WITH_UNIT (LENGTH_MEASURE( 1.000000000000000100E-005 ), #12, 'distance_accuracy_value', 'NONE');
#229 = LINE ( 'NONE', #81, #209 ) ;
#230 = APPROVAL_STATUS ( 'not_yet_approved' ) ;
#231 = APPROVAL ( #31, 'UNSPECIFIED' ) ;
#232 = PERSON_AND_ORGANIZATION ( #70, #185 ) ;
#233 = CC_DESIGN_SECURITY_CLASSIFICATION ( #189, ( #183 ) ) ;
#234 = LINE ( 'NONE', #208, #30 ) ;
#235 =( GEOMETRIC_REPRESENTATION_CONTEXT ( 3 ) GLOBAL_UNCERTAINTY_ASSIGNED_CONTEXT ( ( #228 ) ) GLOBAL_UNIT_ASSIGNED_CONTEXT ( ( #12, #28, #104 ) ) REPRESENTATION_CONTEXT ( 'NONE', 'WORKASPACE' ) );
#236 = PERSON_AND_ORGANIZATION ( #70, #185 ) ;
#237 = DIRECTION ( 'NONE',  ( -0.0000000000000000000, -1.000000000000000000, -0.0000000000000000000 ) ) ;
ENDSEC;
END-ISO-10303-21;
