ISO-10303-21;
HEADER;
FILE_DESCRIPTION (( 'STEP AP203' ),
    '1' );
FILE_NAME ('step_35937.step',
    '2017-05-22T20:26:03',
    ( '' ),
    ( '' ),
    'SwSTEP 2.0',
    'SolidWorks 2016',
    '' );
FILE_SCHEMA (( 'CONFIG_CONTROL_DESIGN' ));
ENDSEC;

DATA;
#1 = DIRECTION ( 'NONE',  ( -1.000000000000000000, -6.938893903907228400E-017, 0.0000000000000000000 ) ) ;
#2 = DIRECTION ( 'NONE',  ( 6.938893903907228400E-017, -1.000000000000000000, 0.0000000000000000000 ) ) ;
#3 = CC_DESIGN_APPROVAL ( #6, ( #19 ) ) ;
#4 = PLANE ( 'NONE',  #214 ) ;
#5 = ADVANCED_FACE ( 'NONE', ( #122 ), #149, .F. ) ;
#6 = APPROVAL ( #211, 'UNSPECIFIED' ) ;
#7 = ADVANCED_FACE ( 'NONE', ( #163 ), #4, .T. ) ;
#8 = CC_DESIGN_DATE_AND_TIME_ASSIGNMENT ( #30, #156, ( #19 ) ) ;
#9 = DIRECTION ( 'NONE',  ( -0.0000000000000000000, 0.0000000000000000000, 1.000000000000000000 ) ) ;
#10 = CC_DESIGN_PERSON_AND_ORGANIZATION_ASSIGNMENT ( #40, #210, ( #19 ) ) ;
#11 = DIRECTION ( 'NONE',  ( 1.000000000000000000, 0.0000000000000000000, 0.0000000000000000000 ) ) ;
#12 = APPROVAL_DATE_TIME ( #15, #6 ) ;
#13 = DIRECTION ( 'NONE',  ( 1.000000000000000000, 6.938893903907228400E-017, -0.0000000000000000000 ) ) ;
#14 = CARTESIAN_POINT ( 'NONE',  ( 25.00000000000000000, 24.99999999999999300, 1.000000000000000000 ) ) ;
#15 = DATE_AND_TIME ( #16, #17 ) ;
#16 = CALENDAR_DATE ( 2017, 22, 5 ) ;
#17 = LOCAL_TIME ( 13, 26, 2.000000000000000000, #22 ) ;
#18 = DIRECTION ( 'NONE',  ( 1.000000000000000000, 0.0000000000000000000, 0.0000000000000000000 ) ) ;
#19 = SECURITY_CLASSIFICATION ( '', '', #176 ) ;
#20 = CARTESIAN_POINT ( 'NONE',  ( -24.99999999999999600, 24.99999999999999300, 1.000000000000000000 ) ) ;
#21 = DIRECTION ( 'NONE',  ( 1.000000000000000000, 0.0000000000000000000, 0.0000000000000000000 ) ) ;
#22 = COORDINATED_UNIVERSAL_TIME_OFFSET ( 7, 0, .BEHIND. ) ;
#23 = PRODUCT_DEFINITION_SHAPE ( 'NONE', 'NONE',  #85 ) ;
#24 = APPROVAL_PERSON_ORGANIZATION ( #26, #6, #148 ) ;
#25 = DIRECTION ( 'NONE',  ( -0.0000000000000000000, -0.0000000000000000000, -1.000000000000000000 ) ) ;
#26 = PERSON_AND_ORGANIZATION ( #39, #104 ) ;
#27 = CC_DESIGN_PERSON_AND_ORGANIZATION_ASSIGNMENT ( #42, #134, ( #43 ) ) ;
#28 = CC_DESIGN_PERSON_AND_ORGANIZATION_ASSIGNMENT ( #46, #29, ( #43 ) ) ;
#29 = PERSON_AND_ORGANIZATION_ROLE ( 'creator' ) ;
#30 = DATE_AND_TIME ( #32, #34 ) ;
#31 = ORIENTED_EDGE ( 'NONE', *, *, #81, .T. ) ;
#32 = CALENDAR_DATE ( 2017, 22, 5 ) ;
#33 = CC_DESIGN_APPROVAL ( #37, ( #43 ) ) ;
#34 = LOCAL_TIME ( 13, 26, 2.000000000000000000, #38 ) ;
#35 = EDGE_LOOP ( 'NONE', ( #93, #181, #195, #180 ) ) ;
#36 = ORIENTED_EDGE ( 'NONE', *, *, #131, .F. ) ;
#37 = APPROVAL ( #169, 'UNSPECIFIED' ) ;
#38 = COORDINATED_UNIVERSAL_TIME_OFFSET ( 7, 0, .BEHIND. ) ;
#39 = PERSON ( 'UNSPECIFIED', 'UNSPECIFIED', 'UNSPECIFIED', ('UNSPECIFIED'), ('UNSPECIFIED'), ('UNSPECIFIED') ) ;
#40 = PERSON_AND_ORGANIZATION ( #39, #104 ) ;
#41 = ADVANCED_FACE ( 'NONE', ( #83 ), #124, .F. ) ;
#42 = PERSON_AND_ORGANIZATION ( #39, #104 ) ;
#43 = PRODUCT_DEFINITION_FORMATION_WITH_SPECIFIED_SOURCE ( 'ANY', '', #67, .NOT_KNOWN. ) ;
#44 = DIRECTION ( 'NONE',  ( 1.000000000000000000, 0.0000000000000000000, 0.0000000000000000000 ) ) ;
#45 = CARTESIAN_POINT ( 'NONE',  ( -24.99999999999999300, -25.00000000000000700, 1.000000000000000000 ) ) ;
#46 = PERSON_AND_ORGANIZATION ( #39, #104 ) ;
#47 = APPROVAL_DATE_TIME ( #49, #37 ) ;
#48 = CALENDAR_DATE ( 2017, 22, 5 ) ;
#49 = DATE_AND_TIME ( #48, #66 ) ;
#50 = COORDINATED_UNIVERSAL_TIME_OFFSET ( 7, 0, .BEHIND. ) ;
#51 = APPROVAL_PERSON_ORGANIZATION ( #63, #37, #190 ) ;
#52 = ADVANCED_FACE ( 'NONE', ( #76 ), #230, .F. ) ;
#53 = APPLICATION_CONTEXT ( 'configuration controlled 3d designs of mechanical parts and assemblies' ) ;
#54 =( NAMED_UNIT ( * ) PLANE_ANGLE_UNIT ( ) SI_UNIT ( $, .RADIAN. ) );
#55 = CARTESIAN_POINT ( 'NONE',  ( -24.99999999999999300, -25.00000000000000700, 1.000000000000000000 ) ) ;
#56 = DATE_AND_TIME ( #158, #75 ) ;
#57 = CARTESIAN_POINT ( 'NONE',  ( -24.99999999999999600, 24.99999999999999300, 0.0000000000000000000 ) ) ;
#58 = DIRECTION ( 'NONE',  ( -1.000000000000000000, -0.0000000000000000000, -0.0000000000000000000 ) ) ;
#59 = DESIGN_CONTEXT ( 'detailed design', #53, 'design' ) ;
#60 = CARTESIAN_POINT ( 'NONE',  ( 25.00000000000000000, 24.99999999999999300, 1.000000000000000000 ) ) ;
#61 = CC_DESIGN_DATE_AND_TIME_ASSIGNMENT ( #56, #205, ( #85 ) ) ;
#62 = PERSON_AND_ORGANIZATION_ROLE ( 'design_owner' ) ;
#63 = PERSON_AND_ORGANIZATION ( #39, #104 ) ;
#64 = DIRECTION ( 'NONE',  ( -1.000000000000000000, -0.0000000000000000000, -0.0000000000000000000 ) ) ;
#65 = DIRECTION ( 'NONE',  ( 0.0000000000000000000, -1.000000000000000000, 0.0000000000000000000 ) ) ;
#66 = LOCAL_TIME ( 13, 26, 2.000000000000000000, #50 ) ;
#67 = PRODUCT ( 'step_35937', 'step_35937', '', ( #192 ) ) ;
#68 = CC_DESIGN_PERSON_AND_ORGANIZATION_ASSIGNMENT ( #229, #164, ( #85 ) ) ;
#69 = CARTESIAN_POINT ( 'NONE',  ( 0.0000000000000000000, 0.0000000000000000000, 0.0000000000000000000 ) ) ;
#70 = CC_DESIGN_APPROVAL ( #78, ( #85 ) ) ;
#71 = CARTESIAN_POINT ( 'NONE',  ( -24.99999999999999600, 24.99999999999999300, 0.0000000000000000000 ) ) ;
#72 = ORIENTED_EDGE ( 'NONE', *, *, #223, .T. ) ;
#73 = DIRECTION ( 'NONE',  ( 0.0000000000000000000, -0.0000000000000000000, -1.000000000000000000 ) ) ;
#74 = DIRECTION ( 'NONE',  ( -6.938893903907228400E-017, 1.000000000000000000, 0.0000000000000000000 ) ) ;
#75 = LOCAL_TIME ( 13, 26, 2.000000000000000000, #227 ) ;
#76 = FACE_OUTER_BOUND ( 'NONE', #171, .T. ) ;
#77 = DIRECTION ( 'NONE',  ( -0.0000000000000000000, -0.0000000000000000000, -1.000000000000000000 ) ) ;
#78 = APPROVAL ( #130, 'UNSPECIFIED' ) ;
#79 =( NAMED_UNIT ( * ) SI_UNIT ( $, .STERADIAN. ) SOLID_ANGLE_UNIT ( ) );
#80 = ADVANCED_FACE ( 'NONE', ( #185 ), #105, .F. ) ;
#81 = EDGE_CURVE ( 'NONE', #220, #103, #145, .T. ) ;
#82 = APPLICATION_CONTEXT ( 'configuration controlled 3d designs of mechanical parts and assemblies' ) ;
#83 = FACE_OUTER_BOUND ( 'NONE', #170, .T. ) ;
#84 = ORIENTED_EDGE ( 'NONE', *, *, #131, .T. ) ;
#85 = PRODUCT_DEFINITION ( 'UNKNOWN', '', #43, #59 ) ;
#86 = SHAPE_DEFINITION_REPRESENTATION ( #23, #221 ) ;
#87 = COORDINATED_UNIVERSAL_TIME_OFFSET ( 7, 0, .BEHIND. ) ;
#88 = CC_DESIGN_PERSON_AND_ORGANIZATION_ASSIGNMENT ( #150, #62, ( #67 ) ) ;
#89 = AXIS2_PLACEMENT_3D ( 'NONE', #197, #96, #18 ) ;
#90 = LINE ( 'NONE', #200, #91 ) ;
#91 = VECTOR ( 'NONE', #21, 1000.000000000000000 ) ;
#92 = DIRECTION ( 'NONE',  ( -6.938893903907228400E-017, 1.000000000000000000, -0.0000000000000000000 ) ) ;
#93 = ORIENTED_EDGE ( 'NONE', *, *, #119, .T. ) ;
#94 = VECTOR ( 'NONE', #25, 1000.000000000000000 ) ;
#95 = VECTOR ( 'NONE', #92, 1000.000000000000000 ) ;
#96 = DIRECTION ( 'NONE',  ( 0.0000000000000000000, 0.0000000000000000000, 1.000000000000000000 ) ) ;
#97 = CARTESIAN_POINT ( 'NONE',  ( -24.99999999999999600, 24.99999999999999300, 1.000000000000000000 ) ) ;
#98 = AXIS2_PLACEMENT_3D ( 'NONE', #14, #1, #236 ) ;
#99 = DIRECTION ( 'NONE',  ( 1.000000000000000000, 0.0000000000000000000, 0.0000000000000000000 ) ) ;
#100 =( GEOMETRIC_REPRESENTATION_CONTEXT ( 3 ) GLOBAL_UNCERTAINTY_ASSIGNED_CONTEXT ( ( #161 ) ) GLOBAL_UNIT_ASSIGNED_CONTEXT ( ( #191, #54, #79 ) ) REPRESENTATION_CONTEXT ( 'NONE', 'WORKASPACE' ) );
#101 = EDGE_LOOP ( 'NONE', ( #132, #153, #115, #142 ) ) ;
#102 = AXIS2_PLACEMENT_3D ( 'NONE', #172, #218, #160 ) ;
#103 = VERTEX_POINT ( 'NONE', #133 ) ;
#104 = ORGANIZATION ( 'UNSPECIFIED', 'UNSPECIFIED', '' ) ;
#105 = PLANE ( 'NONE',  #102 ) ;
#106 = AXIS2_PLACEMENT_3D ( 'NONE', #69, #177, #11 ) ;
#107 = CARTESIAN_POINT ( 'NONE',  ( -24.99999999999999600, 24.99999999999999300, 1.000000000000000000 ) ) ;
#108 = VERTEX_POINT ( 'NONE', #57 ) ;
#109 = APPLICATION_PROTOCOL_DEFINITION ( 'international standard', 'config_control_design', 1994, #53 ) ;
#110 = CARTESIAN_POINT ( 'NONE',  ( 25.00000000000000000, 24.99999999999999300, 1.000000000000000000 ) ) ;
#111 = EDGE_CURVE ( 'NONE', #220, #208, #136, .T. ) ;
#112 = DIRECTION ( 'NONE',  ( -6.938893903907228400E-017, 1.000000000000000000, -0.0000000000000000000 ) ) ;
#113 = ORIENTED_EDGE ( 'NONE', *, *, #225, .T. ) ;
#114 = LINE ( 'NONE', #217, #95 ) ;
#115 = ORIENTED_EDGE ( 'NONE', *, *, #216, .F. ) ;
#116 = VECTOR ( 'NONE', #64, 1000.000000000000000 ) ;
#117 = APPROVAL_DATE_TIME ( #187, #78 ) ;
#118 = LINE ( 'NONE', #20, #226 ) ;
#119 = EDGE_CURVE ( 'NONE', #208, #108, #154, .T. ) ;
#120 = CC_DESIGN_SECURITY_CLASSIFICATION ( #19, ( #43 ) ) ;
#121 = VECTOR ( 'NONE', #112, 1000.000000000000000 ) ;
#122 = FACE_OUTER_BOUND ( 'NONE', #35, .T. ) ;
#123 = VECTOR ( 'NONE', #58, 1000.000000000000000 ) ;
#124 = PLANE ( 'NONE',  #106 ) ;
#125 = LINE ( 'NONE', #45, #232 ) ;
#126 = CARTESIAN_POINT ( 'NONE',  ( 25.00000000000000400, -25.00000000000000700, 1.000000000000000000 ) ) ;
#127 = FACE_OUTER_BOUND ( 'NONE', #101, .T. ) ;
#128 = VECTOR ( 'NONE', #77, 1000.000000000000000 ) ;
#129 = APPROVAL_ROLE ( '' ) ;
#130 = APPROVAL_STATUS ( 'not_yet_approved' ) ;
#131 = EDGE_CURVE ( 'NONE', #108, #233, #135, .T. ) ;
#132 = ORIENTED_EDGE ( 'NONE', *, *, #202, .T. ) ;
#133 = CARTESIAN_POINT ( 'NONE',  ( -24.99999999999999600, 24.99999999999999300, 1.000000000000000000 ) ) ;
#134 = PERSON_AND_ORGANIZATION_ROLE ( 'design_supplier' ) ;
#135 = LINE ( 'NONE', #209, #231 ) ;
#136 = LINE ( 'NONE', #60, #128 ) ;
#137 = AXIS2_PLACEMENT_3D ( 'NONE', #107, #13, #74 ) ;
#138 = LINE ( 'NONE', #126, #94 ) ;
#139 = ORIENTED_EDGE ( 'NONE', *, *, #184, .F. ) ;
#140 = APPLICATION_PROTOCOL_DEFINITION ( 'international standard', 'config_control_design', 1994, #82 ) ;
#141 = PRODUCT_RELATED_PRODUCT_CATEGORY ( 'detail', '', ( #67 ) ) ;
#142 = ORIENTED_EDGE ( 'NONE', *, *, #146, .T. ) ;
#143 = CARTESIAN_POINT ( 'NONE',  ( 25.00000000000000400, -25.00000000000000700, 0.0000000000000000000 ) ) ;
#144 = LINE ( 'NONE', #215, #182 ) ;
#145 = LINE ( 'NONE', #97, #116 ) ;
#146 = EDGE_CURVE ( 'NONE', #201, #204, #138, .T. ) ;
#147 = LOCAL_TIME ( 13, 26, 2.000000000000000000, #87 ) ;
#148 = APPROVAL_ROLE ( '' ) ;
#149 = PLANE ( 'NONE',  #193 ) ;
#150 = PERSON_AND_ORGANIZATION ( #39, #104 ) ;
#151 = CARTESIAN_POINT ( 'NONE',  ( 0.0000000000000000000, 0.0000000000000000000, 1.000000000000000000 ) ) ;
#152 = MANIFOLD_SOLID_BREP ( 'Boss-Extrude1', #189 ) ;
#153 = ORIENTED_EDGE ( 'NONE', *, *, #111, .F. ) ;
#154 = LINE ( 'NONE', #71, #123 ) ;
#155 = VECTOR ( 'NONE', #198, 1000.000000000000000 ) ;
#156 = DATE_TIME_ROLE ( 'classification_date' ) ;
#157 = CALENDAR_DATE ( 2017, 22, 5 ) ;
#158 = CALENDAR_DATE ( 2017, 22, 5 ) ;
#159 = LINE ( 'NONE', #55, #155 ) ;
#160 = DIRECTION ( 'NONE',  ( 0.0000000000000000000, -0.0000000000000000000, 1.000000000000000000 ) ) ;
#161 = UNCERTAINTY_MEASURE_WITH_UNIT (LENGTH_MEASURE( 1.000000000000000100E-005 ), #191, 'distance_accuracy_value', 'NONE');
#162 = DIRECTION ( 'NONE',  ( 6.938893903907228400E-017, -1.000000000000000000, 0.0000000000000000000 ) ) ;
#163 = FACE_OUTER_BOUND ( 'NONE', #207, .T. ) ;
#164 = PERSON_AND_ORGANIZATION_ROLE ( 'creator' ) ;
#165 = ORIENTED_EDGE ( 'NONE', *, *, #222, .T. ) ;
#166 = CARTESIAN_POINT ( 'NONE',  ( 25.00000000000000000, 24.99999999999999300, 0.0000000000000000000 ) ) ;
#167 = CARTESIAN_POINT ( 'NONE',  ( 25.00000000000000400, -25.00000000000000700, 1.000000000000000000 ) ) ;
#168 = PERSON_AND_ORGANIZATION ( #39, #104 ) ;
#169 = APPROVAL_STATUS ( 'not_yet_approved' ) ;
#170 = EDGE_LOOP ( 'NONE', ( #36, #183, #188, #174 ) ) ;
#171 = EDGE_LOOP ( 'NONE', ( #84, #224, #203, #165 ) ) ;
#172 = CARTESIAN_POINT ( 'NONE',  ( -24.99999999999999300, -25.00000000000000700, 1.000000000000000000 ) ) ;
#173 = APPROVAL_PERSON_ORGANIZATION ( #168, #78, #129 ) ;
#174 = ORIENTED_EDGE ( 'NONE', *, *, #223, .F. ) ;
#175 = CARTESIAN_POINT ( 'NONE',  ( 25.00000000000000000, 24.99999999999999300, 0.0000000000000000000 ) ) ;
#176 = SECURITY_CLASSIFICATION_LEVEL ( 'unclassified' ) ;
#177 = DIRECTION ( 'NONE',  ( -0.0000000000000000000, 0.0000000000000000000, 1.000000000000000000 ) ) ;
#178 = ORIENTED_EDGE ( 'NONE', *, *, #146, .F. ) ;
#179 = VERTEX_POINT ( 'NONE', #219 ) ;
#180 = ORIENTED_EDGE ( 'NONE', *, *, #111, .T. ) ;
#181 = ORIENTED_EDGE ( 'NONE', *, *, #222, .F. ) ;
#182 = VECTOR ( 'NONE', #206, 1000.000000000000000 ) ;
#183 = ORIENTED_EDGE ( 'NONE', *, *, #119, .F. ) ;
#184 = EDGE_CURVE ( 'NONE', #179, #201, #125, .T. ) ;
#185 = FACE_OUTER_BOUND ( 'NONE', #199, .T. ) ;
#186 = CARTESIAN_POINT ( 'NONE',  ( -24.99999999999999600, 24.99999999999999300, 1.000000000000000000 ) ) ;
#187 = DATE_AND_TIME ( #157, #147 ) ;
#188 = ORIENTED_EDGE ( 'NONE', *, *, #202, .F. ) ;
#189 = CLOSED_SHELL ( 'NONE', ( #52, #80, #213, #5, #7, #41 ) ) ;
#190 = APPROVAL_ROLE ( '' ) ;
#191 =( LENGTH_UNIT ( ) NAMED_UNIT ( * ) SI_UNIT ( .MILLI., .METRE. ) );
#192 = MECHANICAL_CONTEXT ( 'NONE', #82, 'mechanical' ) ;
#193 = AXIS2_PLACEMENT_3D ( 'NONE', #186, #65, #73 ) ;
#194 = ORIENTED_EDGE ( 'NONE', *, *, #216, .T. ) ;
#195 = ORIENTED_EDGE ( 'NONE', *, *, #81, .F. ) ;
#196 = ORIENTED_EDGE ( 'NONE', *, *, #184, .T. ) ;
#197 = CARTESIAN_POINT ( 'NONE',  ( 0.0000000000000000000, 0.0000000000000000000, 0.0000000000000000000 ) ) ;
#198 = DIRECTION ( 'NONE',  ( -0.0000000000000000000, -0.0000000000000000000, -1.000000000000000000 ) ) ;
#199 = EDGE_LOOP ( 'NONE', ( #72, #178, #139, #113 ) ) ;
#200 = CARTESIAN_POINT ( 'NONE',  ( -24.99999999999999300, -25.00000000000000700, 0.0000000000000000000 ) ) ;
#201 = VERTEX_POINT ( 'NONE', #167 ) ;
#202 = EDGE_CURVE ( 'NONE', #204, #208, #228, .T. ) ;
#203 = ORIENTED_EDGE ( 'NONE', *, *, #237, .F. ) ;
#204 = VERTEX_POINT ( 'NONE', #143 ) ;
#205 = DATE_TIME_ROLE ( 'creation_date' ) ;
#206 = DIRECTION ( 'NONE',  ( -0.0000000000000000000, -0.0000000000000000000, -1.000000000000000000 ) ) ;
#207 = EDGE_LOOP ( 'NONE', ( #234, #196, #194, #31 ) ) ;
#208 = VERTEX_POINT ( 'NONE', #166 ) ;
#209 = CARTESIAN_POINT ( 'NONE',  ( -24.99999999999999600, 24.99999999999999300, 0.0000000000000000000 ) ) ;
#210 = PERSON_AND_ORGANIZATION_ROLE ( 'classification_officer' ) ;
#211 = APPROVAL_STATUS ( 'not_yet_approved' ) ;
#212 = PLANE ( 'NONE',  #98 ) ;
#213 = ADVANCED_FACE ( 'NONE', ( #127 ), #212, .F. ) ;
#214 = AXIS2_PLACEMENT_3D ( 'NONE', #151, #9, #44 ) ;
#215 = CARTESIAN_POINT ( 'NONE',  ( -24.99999999999999600, 24.99999999999999300, 1.000000000000000000 ) ) ;
#216 = EDGE_CURVE ( 'NONE', #201, #220, #114, .T. ) ;
#217 = CARTESIAN_POINT ( 'NONE',  ( 25.00000000000000000, 24.99999999999999300, 1.000000000000000000 ) ) ;
#218 = DIRECTION ( 'NONE',  ( 0.0000000000000000000, 1.000000000000000000, 0.0000000000000000000 ) ) ;
#219 = CARTESIAN_POINT ( 'NONE',  ( -24.99999999999999300, -25.00000000000000700, 1.000000000000000000 ) ) ;
#220 = VERTEX_POINT ( 'NONE', #110 ) ;
#221 = ADVANCED_BREP_SHAPE_REPRESENTATION ( 'step_35937', ( #152, #89 ), #100 ) ;
#222 = EDGE_CURVE ( 'NONE', #103, #108, #144, .T. ) ;
#223 = EDGE_CURVE ( 'NONE', #233, #204, #90, .T. ) ;
#224 = ORIENTED_EDGE ( 'NONE', *, *, #225, .F. ) ;
#225 = EDGE_CURVE ( 'NONE', #179, #233, #159, .T. ) ;
#226 = VECTOR ( 'NONE', #2, 1000.000000000000000 ) ;
#227 = COORDINATED_UNIVERSAL_TIME_OFFSET ( 7, 0, .BEHIND. ) ;
#228 = LINE ( 'NONE', #175, #121 ) ;
#229 = PERSON_AND_ORGANIZATION ( #39, #104 ) ;
#230 = PLANE ( 'NONE',  #137 ) ;
#231 = VECTOR ( 'NONE', #162, 1000.000000000000000 ) ;
#232 = VECTOR ( 'NONE', #99, 1000.000000000000000 ) ;
#233 = VERTEX_POINT ( 'NONE', #235 ) ;
#234 = ORIENTED_EDGE ( 'NONE', *, *, #237, .T. ) ;
#235 = CARTESIAN_POINT ( 'NONE',  ( -24.99999999999999300, -25.00000000000000700, 0.0000000000000000000 ) ) ;
#236 = DIRECTION ( 'NONE',  ( 6.938893903907228400E-017, -1.000000000000000000, 0.0000000000000000000 ) ) ;
#237 = EDGE_CURVE ( 'NONE', #103, #179, #118, .T. ) ;
ENDSEC;
END-ISO-10303-21;
