ISO-10303-21;
HEADER;
FILE_DESCRIPTION (( 'STEP AP203' ),
    '1' );
FILE_NAME ('Web Model 17165_17165.step',
    '2021-06-17T17:24:29',
    ( '' ),
    ( '' ),
    'SwSTEP 2.0',
    'SolidWorks 2018',
    '' );
FILE_SCHEMA (( 'CONFIG_CONTROL_DESIGN' ));
ENDSEC;

DATA;
#1 = PRODUCT_RELATED_PRODUCT_CATEGORY ( 'detail', '', ( #27 ) ) ;
#2 = ORIENTED_EDGE ( 'NONE', *, *, #23, .F. ) ;
#3 = CARTESIAN_POINT ( 'NONE',  ( 0.000000000000000000, 0.000000000000000000, 0.03937007874015747977 ) ) ;
#4 = DIRECTION ( 'NONE',  ( 1.000000000000000000, 0.000000000000000000, 0.000000000000000000 ) ) ;
#5 = PERSON_AND_ORGANIZATION ( #60, #162 ) ;
#6 = PERSON_AND_ORGANIZATION_ROLE ( 'design_owner' ) ;
#7 = PRODUCT_DEFINITION_FORMATION_WITH_SPECIFIED_SOURCE ( 'ANY', '', #27, .NOT_KNOWN. ) ;
#8 = CIRCLE ( 'NONE', #57, 0.4921259842519685179 ) ;
#9 = SHAPE_DEFINITION_REPRESENTATION ( #30, #112 ) ;
#10 = APPROVAL ( #82, 'UNSPECIFIED' ) ;
#11 = PERSON_AND_ORGANIZATION ( #60, #162 ) ;
#12 = EDGE_CURVE ( 'NONE', #150, #56, #84, .T. ) ;
#13 = ORIENTED_EDGE ( 'NONE', *, *, #23, .T. ) ;
#14 = CALENDAR_DATE ( 2021, 17, 6 ) ;
#15 = VERTEX_POINT ( 'NONE', #37 ) ;
#16 = PERSON_AND_ORGANIZATION ( #60, #162 ) ;
#17 = UNCERTAINTY_MEASURE_WITH_UNIT (LENGTH_MEASURE( 1.000000000000000082E-05 ), #41, 'distance_accuracy_value', 'NONE');
#18 = EDGE_CURVE ( 'NONE', #47, #15, #8, .T. ) ;
#19 = DIRECTION ( 'NONE',  ( 1.000000000000000000, 0.000000000000000000, 0.000000000000000000 ) ) ;
#20 = DIRECTION ( 'NONE',  ( 0.000000000000000000, 0.000000000000000000, 1.000000000000000000 ) ) ;
#21 = CARTESIAN_POINT ( 'NONE',  ( 0.000000000000000000, 0.000000000000000000, 0.000000000000000000 ) ) ;
#22 = ORIENTED_EDGE ( 'NONE', *, *, #111, .T. ) ;
#23 = EDGE_CURVE ( 'NONE', #15, #150, #28, .T. ) ;
#24 = MECHANICAL_CONTEXT ( 'NONE', #43, 'mechanical' ) ;
#25 = ORIENTED_EDGE ( 'NONE', *, *, #18, .T. ) ;
#26 = CALENDAR_DATE ( 2021, 17, 6 ) ;
#27 = PRODUCT ( 'Web Model 17165_17165', 'Web Model 17165_17165', '', ( #24 ) ) ;
#28 = LINE ( 'NONE', #156, #109 ) ;
#29 = CALENDAR_DATE ( 2021, 17, 6 ) ;
#30 = PRODUCT_DEFINITION_SHAPE ( 'NONE', 'NONE',  #106 ) ;
#31 = APPROVAL ( #68, 'UNSPECIFIED' ) ;
#32 = DIRECTION ( 'NONE',  ( 0.000000000000000000, 0.000000000000000000, 1.000000000000000000 ) ) ;
#33 = FACE_OUTER_BOUND ( 'NONE', #42, .T. ) ;
#34 = DIRECTION ( 'NONE',  ( -0.000000000000000000, -0.000000000000000000, -1.000000000000000000 ) ) ;
#35 = LENGTH_MEASURE_WITH_UNIT ( LENGTH_MEASURE( 0.02539999999999999897 ), #159 );
#36 = DIRECTION ( 'NONE',  ( 0.000000000000000000, 0.000000000000000000, 1.000000000000000000 ) ) ;
#37 = CARTESIAN_POINT ( 'NONE',  ( -0.4921259842519685179, 0.000000000000000000, 0.03937007874015747977 ) ) ;
#38 = CARTESIAN_POINT ( 'NONE',  ( 0.4921259842519685179, 6.026805113914139867E-17, 0.03937007874015747977 ) ) ;
#39 = APPLICATION_PROTOCOL_DEFINITION ( 'international standard', 'config_control_design', 1994, #43 ) ;
#40 = CC_DESIGN_DATE_AND_TIME_ASSIGNMENT ( #153, #59, ( #106 ) ) ;
#41 =( CONVERSION_BASED_UNIT ( 'INCH', #35 ) LENGTH_UNIT ( ) NAMED_UNIT ( #83 ) );
#42 = EDGE_LOOP ( 'NONE', ( #137, #134, #13, #126 ) ) ;
#43 = APPLICATION_CONTEXT ( 'configuration controlled 3d designs of mechanical parts and assemblies' ) ;
#44 = EDGE_CURVE ( 'NONE', #56, #150, #81, .T. ) ;
#45 = PERSON_AND_ORGANIZATION ( #60, #162 ) ;
#46 = FACE_OUTER_BOUND ( 'NONE', #102, .T. ) ;
#47 = VERTEX_POINT ( 'NONE', #51 ) ;
#48 = LOCAL_TIME ( 13, 24, 29.00000000000000000, #62 ) ;
#49 = DIRECTION ( 'NONE',  ( 0.000000000000000000, 0.000000000000000000, 1.000000000000000000 ) ) ;
#50 = AXIS2_PLACEMENT_3D ( 'NONE', #77, #93, #166 ) ;
#51 = CARTESIAN_POINT ( 'NONE',  ( 0.4921259842519685179, 6.026805113914139867E-17, 0.03937007874015747977 ) ) ;
#52 = CARTESIAN_POINT ( 'NONE',  ( 0.000000000000000000, 0.000000000000000000, 0.03937007874015747977 ) ) ;
#53 = CC_DESIGN_PERSON_AND_ORGANIZATION_ASSIGNMENT ( #124, #80, ( #7 ) ) ;
#54 = CARTESIAN_POINT ( 'NONE',  ( 0.000000000000000000, 0.000000000000000000, 0.000000000000000000 ) ) ;
#55 =( NAMED_UNIT ( * ) PLANE_ANGLE_UNIT ( ) SI_UNIT ( $, .RADIAN. ) );
#56 = VERTEX_POINT ( 'NONE', #141 ) ;
#57 = AXIS2_PLACEMENT_3D ( 'NONE', #52, #20, #4 ) ;
#58 = COORDINATED_UNIVERSAL_TIME_OFFSET ( 5, 0, .BEHIND. ) ;
#59 = DATE_TIME_ROLE ( 'creation_date' ) ;
#60 = PERSON ( 'UNSPECIFIED', 'UNSPECIFIED', 'UNSPECIFIED', ('UNSPECIFIED'), ('UNSPECIFIED'), ('UNSPECIFIED') ) ;
#61 =( GEOMETRIC_REPRESENTATION_CONTEXT ( 3 ) GLOBAL_UNCERTAINTY_ASSIGNED_CONTEXT ( ( #17 ) ) GLOBAL_UNIT_ASSIGNED_CONTEXT ( ( #41, #55, #110 ) ) REPRESENTATION_CONTEXT ( 'NONE', 'WORKASPACE' ) );
#62 = COORDINATED_UNIVERSAL_TIME_OFFSET ( 5, 0, .BEHIND. ) ;
#63 = APPROVAL_DATE_TIME ( #86, #64 ) ;
#64 = APPROVAL ( #79, 'UNSPECIFIED' ) ;
#65 = EDGE_LOOP ( 'NONE', ( #123, #22, #173, #2 ) ) ;
#66 = CARTESIAN_POINT ( 'NONE',  ( 0.000000000000000000, 0.000000000000000000, 0.03937007874015747977 ) ) ;
#67 = DIRECTION ( 'NONE',  ( 0.000000000000000000, 0.000000000000000000, 1.000000000000000000 ) ) ;
#68 = APPROVAL_STATUS ( 'not_yet_approved' ) ;
#69 = AXIS2_PLACEMENT_3D ( 'NONE', #145, #170, #146 ) ;
#70 = CYLINDRICAL_SURFACE ( 'NONE', #98, 0.4921259842519685179 ) ;
#71 = ADVANCED_FACE ( 'NONE', ( #33 ), #70, .T. ) ;
#72 = APPROVAL_PERSON_ORGANIZATION ( #16, #64, #121 ) ;
#73 = CC_DESIGN_APPROVAL ( #31, ( #161 ) ) ;
#74 = ORIENTED_EDGE ( 'NONE', *, *, #12, .F. ) ;
#75 = DATE_AND_TIME ( #26, #142 ) ;
#76 = DIRECTION ( 'NONE',  ( 1.000000000000000000, 0.000000000000000000, 0.000000000000000000 ) ) ;
#77 = CARTESIAN_POINT ( 'NONE',  ( 0.000000000000000000, 0.000000000000000000, 0.000000000000000000 ) ) ;
#78 = PERSON_AND_ORGANIZATION ( #60, #162 ) ;
#79 = APPROVAL_STATUS ( 'not_yet_approved' ) ;
#80 = PERSON_AND_ORGANIZATION_ROLE ( 'design_supplier' ) ;
#81 = CIRCLE ( 'NONE', #50, 0.4921259842519685179 ) ;
#82 = APPROVAL_STATUS ( 'not_yet_approved' ) ;
#83 = DIMENSIONAL_EXPONENTS ( 1.000000000000000000, 0.000000000000000000, 0.000000000000000000, 0.000000000000000000, 0.000000000000000000, 0.000000000000000000, 0.000000000000000000 ) ;
#84 = CIRCLE ( 'NONE', #89, 0.4921259842519685179 ) ;
#85 = CC_DESIGN_PERSON_AND_ORGANIZATION_ASSIGNMENT ( #45, #6, ( #27 ) ) ;
#86 = DATE_AND_TIME ( #167, #163 ) ;
#87 = EDGE_LOOP ( 'NONE', ( #101, #25 ) ) ;
#88 = ORIENTED_EDGE ( 'NONE', *, *, #44, .F. ) ;
#89 = AXIS2_PLACEMENT_3D ( 'NONE', #21, #32, #19 ) ;
#90 = AXIS2_PLACEMENT_3D ( 'NONE', #94, #116, #91 ) ;
#91 = DIRECTION ( 'NONE',  ( -1.000000000000000000, 0.000000000000000000, 0.000000000000000000 ) ) ;
#92 = MANIFOLD_SOLID_BREP ( 'Boss-Extrude1', #130 ) ;
#93 = DIRECTION ( 'NONE',  ( 0.000000000000000000, 0.000000000000000000, 1.000000000000000000 ) ) ;
#94 = CARTESIAN_POINT ( 'NONE',  ( 0.000000000000000000, 0.000000000000000000, 0.03937007874015747977 ) ) ;
#95 = APPLICATION_CONTEXT ( 'configuration controlled 3d designs of mechanical parts and assemblies' ) ;
#96 = CIRCLE ( 'NONE', #143, 0.4921259842519685179 ) ;
#97 = LOCAL_TIME ( 13, 24, 29.00000000000000000, #58 ) ;
#98 = AXIS2_PLACEMENT_3D ( 'NONE', #3, #117, #128 ) ;
#99 = LINE ( 'NONE', #38, #114 ) ;
#100 = LOCAL_TIME ( 13, 24, 29.00000000000000000, #154 ) ;
#101 = ORIENTED_EDGE ( 'NONE', *, *, #176, .T. ) ;
#102 = EDGE_LOOP ( 'NONE', ( #74, #88 ) ) ;
#103 = AXIS2_PLACEMENT_3D ( 'NONE', #66, #67, #129 ) ;
#104 = DATE_AND_TIME ( #29, #48 ) ;
#105 = DIRECTION ( 'NONE',  ( -0.000000000000000000, -0.000000000000000000, -1.000000000000000000 ) ) ;
#106 = PRODUCT_DEFINITION ( 'UNKNOWN', '', #7, #139 ) ;
#107 = DATE_TIME_ROLE ( 'classification_date' ) ;
#108 = SECURITY_CLASSIFICATION_LEVEL ( 'unclassified' ) ;
#109 = VECTOR ( 'NONE', #34, 39.37007874015748143 ) ;
#110 =( NAMED_UNIT ( * ) SI_UNIT ( $, .STERADIAN. ) SOLID_ANGLE_UNIT ( ) );
#111 = EDGE_CURVE ( 'NONE', #47, #56, #99, .T. ) ;
#112 = ADVANCED_BREP_SHAPE_REPRESENTATION ( 'Web Model 17165_17165', ( #92, #69 ), #61 ) ;
#113 = CC_DESIGN_PERSON_AND_ORGANIZATION_ASSIGNMENT ( #5, #175, ( #106 ) ) ;
#114 = VECTOR ( 'NONE', #105, 39.37007874015748143 ) ;
#115 = PLANE ( 'NONE',  #103 ) ;
#116 = DIRECTION ( 'NONE',  ( -0.000000000000000000, -0.000000000000000000, -1.000000000000000000 ) ) ;
#117 = DIRECTION ( 'NONE',  ( -0.000000000000000000, -0.000000000000000000, -1.000000000000000000 ) ) ;
#118 = COORDINATED_UNIVERSAL_TIME_OFFSET ( 5, 0, .BEHIND. ) ;
#119 = ADVANCED_FACE ( 'NONE', ( #140 ), #115, .T. ) ;
#120 = DATE_AND_TIME ( #158, #100 ) ;
#121 = APPROVAL_ROLE ( '' ) ;
#122 = CC_DESIGN_PERSON_AND_ORGANIZATION_ASSIGNMENT ( #11, #133, ( #161 ) ) ;
#123 = ORIENTED_EDGE ( 'NONE', *, *, #18, .F. ) ;
#124 = PERSON_AND_ORGANIZATION ( #60, #162 ) ;
#125 = DIRECTION ( 'NONE',  ( 1.000000000000000000, 0.000000000000000000, -0.000000000000000000 ) ) ;
#126 = ORIENTED_EDGE ( 'NONE', *, *, #12, .T. ) ;
#127 = APPROVAL_DATE_TIME ( #75, #10 ) ;
#128 = DIRECTION ( 'NONE',  ( -1.000000000000000000, 0.000000000000000000, 0.000000000000000000 ) ) ;
#129 = DIRECTION ( 'NONE',  ( 1.000000000000000000, 0.000000000000000000, -0.000000000000000000 ) ) ;
#130 = CLOSED_SHELL ( 'NONE', ( #172, #71, #119, #131 ) ) ;
#131 = ADVANCED_FACE ( 'NONE', ( #46 ), #157, .F. ) ;
#132 = APPROVAL_ROLE ( '' ) ;
#133 = PERSON_AND_ORGANIZATION_ROLE ( 'classification_officer' ) ;
#134 = ORIENTED_EDGE ( 'NONE', *, *, #176, .F. ) ;
#135 = CC_DESIGN_PERSON_AND_ORGANIZATION_ASSIGNMENT ( #78, #171, ( #7 ) ) ;
#136 = APPROVAL_PERSON_ORGANIZATION ( #149, #31, #147 ) ;
#137 = ORIENTED_EDGE ( 'NONE', *, *, #111, .F. ) ;
#138 = APPROVAL_PERSON_ORGANIZATION ( #174, #10, #132 ) ;
#139 = DESIGN_CONTEXT ( 'detailed design', #95, 'design' ) ;
#140 = FACE_OUTER_BOUND ( 'NONE', #87, .T. ) ;
#141 = CARTESIAN_POINT ( 'NONE',  ( 0.4921259842519685179, 6.026805113914139867E-17, 0.000000000000000000 ) ) ;
#142 = LOCAL_TIME ( 13, 24, 29.00000000000000000, #177 ) ;
#143 = AXIS2_PLACEMENT_3D ( 'NONE', #144, #49, #76 ) ;
#144 = CARTESIAN_POINT ( 'NONE',  ( 0.000000000000000000, 0.000000000000000000, 0.03937007874015747977 ) ) ;
#145 = CARTESIAN_POINT ( 'NONE',  ( 0.000000000000000000, 0.000000000000000000, 0.000000000000000000 ) ) ;
#146 = DIRECTION ( 'NONE',  ( 1.000000000000000000, 0.000000000000000000, 0.000000000000000000 ) ) ;
#147 = APPROVAL_ROLE ( '' ) ;
#148 = FACE_OUTER_BOUND ( 'NONE', #65, .T. ) ;
#149 = PERSON_AND_ORGANIZATION ( #60, #162 ) ;
#150 = VERTEX_POINT ( 'NONE', #169 ) ;
#151 = APPROVAL_DATE_TIME ( #120, #31 ) ;
#152 = CC_DESIGN_APPROVAL ( #64, ( #7 ) ) ;
#153 = DATE_AND_TIME ( #14, #97 ) ;
#154 = COORDINATED_UNIVERSAL_TIME_OFFSET ( 5, 0, .BEHIND. ) ;
#155 = CC_DESIGN_APPROVAL ( #10, ( #106 ) ) ;
#156 = CARTESIAN_POINT ( 'NONE',  ( -0.4921259842519685179, 0.000000000000000000, 0.03937007874015747977 ) ) ;
#157 = PLANE ( 'NONE',  #165 ) ;
#158 = CALENDAR_DATE ( 2021, 17, 6 ) ;
#159 =( LENGTH_UNIT ( ) NAMED_UNIT ( * ) SI_UNIT ( $, .METRE. ) );
#160 = APPLICATION_PROTOCOL_DEFINITION ( 'international standard', 'config_control_design', 1994, #95 ) ;
#161 = SECURITY_CLASSIFICATION ( '', '', #108 ) ;
#162 = ORGANIZATION ( 'UNSPECIFIED', 'UNSPECIFIED', '' ) ;
#163 = LOCAL_TIME ( 13, 24, 29.00000000000000000, #118 ) ;
#164 = CYLINDRICAL_SURFACE ( 'NONE', #90, 0.4921259842519685179 ) ;
#165 = AXIS2_PLACEMENT_3D ( 'NONE', #54, #36, #125 ) ;
#166 = DIRECTION ( 'NONE',  ( 1.000000000000000000, 0.000000000000000000, 0.000000000000000000 ) ) ;
#167 = CALENDAR_DATE ( 2021, 17, 6 ) ;
#168 = CC_DESIGN_DATE_AND_TIME_ASSIGNMENT ( #104, #107, ( #161 ) ) ;
#169 = CARTESIAN_POINT ( 'NONE',  ( -0.4921259842519685179, 0.000000000000000000, 0.000000000000000000 ) ) ;
#170 = DIRECTION ( 'NONE',  ( 0.000000000000000000, 0.000000000000000000, 1.000000000000000000 ) ) ;
#171 = PERSON_AND_ORGANIZATION_ROLE ( 'creator' ) ;
#172 = ADVANCED_FACE ( 'NONE', ( #148 ), #164, .T. ) ;
#173 = ORIENTED_EDGE ( 'NONE', *, *, #44, .T. ) ;
#174 = PERSON_AND_ORGANIZATION ( #60, #162 ) ;
#175 = PERSON_AND_ORGANIZATION_ROLE ( 'creator' ) ;
#176 = EDGE_CURVE ( 'NONE', #15, #47, #96, .T. ) ;
#177 = COORDINATED_UNIVERSAL_TIME_OFFSET ( 5, 0, .BEHIND. ) ;
#178 = CC_DESIGN_SECURITY_CLASSIFICATION ( #161, ( #7 ) ) ;
ENDSEC;
END-ISO-10303-21;
