ISO-10303-21;
HEADER;
FILE_DESCRIPTION (( 'STEP AP203' ),
    '1' );
FILE_NAME ('Web Model 46702_32363.step',
    '2017-04-10T17:43:05',
    ( '' ),
    ( '' ),
    'SwSTEP 2.0',
    'SolidWorks 2016',
    '' );
FILE_SCHEMA (( 'CONFIG_CONTROL_DESIGN' ));
ENDSEC;

DATA;
#1 = VECTOR ( 'NONE', #112, 1000.000000000000000 ) ;
#2 = ORIENTED_EDGE ( 'NONE', *, *, #231, .T. ) ;
#3 = VERTEX_POINT ( 'NONE', #111 ) ;
#4 = DIRECTION ( 'NONE',  ( -0.0000000000000000000, -0.0000000000000000000, -1.000000000000000000 ) ) ;
#5 = CARTESIAN_POINT ( 'NONE',  ( 0.0000000000000000000, 0.0000000000000000000, 0.0000000000000000000 ) ) ;
#6 = PERSON_AND_ORGANIZATION_ROLE ( 'creator' ) ;
#7 = MECHANICAL_CONTEXT ( 'NONE', #19, 'mechanical' ) ;
#8 = EDGE_CURVE ( 'NONE', #183, #13, #214, .T. ) ;
#9 = APPROVAL_PERSON_ORGANIZATION ( #91, #68, #70 ) ;
#10 = DATE_TIME_ROLE ( 'creation_date' ) ;
#11 = APPROVAL_STATUS ( 'not_yet_approved' ) ;
#12 = CC_DESIGN_PERSON_AND_ORGANIZATION_ASSIGNMENT ( #150, #6, ( #218 ) ) ;
#13 = VERTEX_POINT ( 'NONE', #179 ) ;
#14 = COORDINATED_UNIVERSAL_TIME_OFFSET ( 5, 0, .BEHIND. ) ;
#15 = VERTEX_POINT ( 'NONE', #155 ) ;
#16 = APPROVAL_PERSON_ORGANIZATION ( #25, #229, #208 ) ;
#17 = DATE_AND_TIME ( #194, #71 ) ;
#18 = LINE ( 'NONE', #106, #65 ) ;
#19 = APPLICATION_CONTEXT ( 'configuration controlled 3d designs of mechanical parts and assemblies' ) ;
#20 = EDGE_CURVE ( 'NONE', #15, #63, #146, .T. ) ;
#21 = FACE_OUTER_BOUND ( 'NONE', #56, .T. ) ;
#22 =( NAMED_UNIT ( * ) PLANE_ANGLE_UNIT ( ) SI_UNIT ( $, .RADIAN. ) );
#23 = AXIS2_PLACEMENT_3D ( 'NONE', #235, #123, #188 ) ;
#24 = EDGE_CURVE ( 'NONE', #13, #15, #89, .T. ) ;
#25 = PERSON_AND_ORGANIZATION ( #175, #72 ) ;
#26 = PLANE ( 'NONE',  #86 ) ;
#27 = CARTESIAN_POINT ( 'NONE',  ( -12.49999999999999600, -19.00000000000000400, 0.0000000000000000000 ) ) ;
#28 = PERSON_AND_ORGANIZATION ( #175, #72 ) ;
#29 = VERTEX_POINT ( 'NONE', #27 ) ;
#30 = ORIENTED_EDGE ( 'NONE', *, *, #126, .T. ) ;
#31 = SECURITY_CLASSIFICATION_LEVEL ( 'unclassified' ) ;
#32 = CARTESIAN_POINT ( 'NONE',  ( 12.49999999999999800, 18.99999999999999600, 1.500000000000000000 ) ) ;
#33 = CC_DESIGN_DATE_AND_TIME_ASSIGNMENT ( #160, #10, ( #218 ) ) ;
#34 = ORIENTED_EDGE ( 'NONE', *, *, #120, .F. ) ;
#35 = VERTEX_POINT ( 'NONE', #236 ) ;
#36 = PERSON_AND_ORGANIZATION_ROLE ( 'design_owner' ) ;
#37 = ADVANCED_FACE ( 'NONE', ( #138 ), #204, .F. ) ;
#38 = COORDINATED_UNIVERSAL_TIME_OFFSET ( 5, 0, .BEHIND. ) ;
#39 = DIRECTION ( 'NONE',  ( -1.369518533665900300E-016, 1.000000000000000000, -0.0000000000000000000 ) ) ;
#40 = CALENDAR_DATE ( 2017, 10, 4 ) ;
#41 = ORIENTED_EDGE ( 'NONE', *, *, #24, .F. ) ;
#42 = DIRECTION ( 'NONE',  ( 1.000000000000000000, 0.0000000000000000000, 0.0000000000000000000 ) ) ;
#43 = VECTOR ( 'NONE', #39, 1000.000000000000000 ) ;
#44 = PRODUCT_DEFINITION_FORMATION_WITH_SPECIFIED_SOURCE ( 'ANY', '', #186, .NOT_KNOWN. ) ;
#45 = LINE ( 'NONE', #87, #88 ) ;
#46 = CARTESIAN_POINT ( 'NONE',  ( -12.50000000000000000, 18.99999999999999600, 1.500000000000000000 ) ) ;
#47 = DIRECTION ( 'NONE',  ( 1.000000000000000000, 0.0000000000000000000, 0.0000000000000000000 ) ) ;
#48 = DIRECTION ( 'NONE',  ( -0.0000000000000000000, 0.0000000000000000000, 1.000000000000000000 ) ) ;
#49 = FACE_OUTER_BOUND ( 'NONE', #165, .T. ) ;
#50 = ORIENTED_EDGE ( 'NONE', *, *, #206, .T. ) ;
#51 = EDGE_LOOP ( 'NONE', ( #50, #134, #54, #125 ) ) ;
#52 = AXIS2_PLACEMENT_3D ( 'NONE', #116, #195, #162 ) ;
#53 = ORIENTED_EDGE ( 'NONE', *, *, #20, .T. ) ;
#54 = ORIENTED_EDGE ( 'NONE', *, *, #151, .F. ) ;
#55 = ORIENTED_EDGE ( 'NONE', *, *, #206, .F. ) ;
#56 = EDGE_LOOP ( 'NONE', ( #53, #69, #78, #110 ) ) ;
#57 = VERTEX_POINT ( 'NONE', #77 ) ;
#58 = ORIENTED_EDGE ( 'NONE', *, *, #8, .T. ) ;
#59 =( NAMED_UNIT ( * ) SI_UNIT ( $, .STERADIAN. ) SOLID_ANGLE_UNIT ( ) );
#60 = APPROVAL_DATE_TIME ( #232, #68 ) ;
#61 = LINE ( 'NONE', #133, #97 ) ;
#62 = CARTESIAN_POINT ( 'NONE',  ( -12.49999999999999600, -19.00000000000000400, 1.500000000000000000 ) ) ;
#63 = VERTEX_POINT ( 'NONE', #178 ) ;
#64 = DIRECTION ( 'NONE',  ( -9.130123557772669600E-017, 1.000000000000000000, 0.0000000000000000000 ) ) ;
#65 = VECTOR ( 'NONE', #96, 1000.000000000000000 ) ;
#66 = DIRECTION ( 'NONE',  ( -0.0000000000000000000, -0.0000000000000000000, -1.000000000000000000 ) ) ;
#67 = CARTESIAN_POINT ( 'NONE',  ( 12.49999999999999800, 18.99999999999999600, 1.500000000000000000 ) ) ;
#68 = APPROVAL ( #190, 'UNSPECIFIED' ) ;
#69 = ORIENTED_EDGE ( 'NONE', *, *, #198, .F. ) ;
#70 = APPROVAL_ROLE ( '' ) ;
#71 = LOCAL_TIME ( 13, 43, 5.000000000000000000, #145 ) ;
#72 = ORGANIZATION ( 'UNSPECIFIED', 'UNSPECIFIED', '' ) ;
#73 = LINE ( 'NONE', #168, #223 ) ;
#74 = DIRECTION ( 'NONE',  ( -1.369518533665900300E-016, 1.000000000000000000, -0.0000000000000000000 ) ) ;
#75 = LINE ( 'NONE', #46, #1 ) ;
#76 = APPROVAL_STATUS ( 'not_yet_approved' ) ;
#77 = CARTESIAN_POINT ( 'NONE',  ( -12.50000000000000000, 18.99999999999999600, 1.500000000000000000 ) ) ;
#78 = ORIENTED_EDGE ( 'NONE', *, *, #209, .F. ) ;
#79 = CARTESIAN_POINT ( 'NONE',  ( -12.50000000000000000, 18.99999999999999600, 1.500000000000000000 ) ) ;
#80 = ORIENTED_EDGE ( 'NONE', *, *, #120, .T. ) ;
#81 = CARTESIAN_POINT ( 'NONE',  ( -12.50000000000000000, 18.99999999999999600, 0.0000000000000000000 ) ) ;
#82 = DESIGN_CONTEXT ( 'detailed design', #83, 'design' ) ;
#83 = APPLICATION_CONTEXT ( 'configuration controlled 3d designs of mechanical parts and assemblies' ) ;
#84 = CC_DESIGN_APPROVAL ( #68, ( #44 ) ) ;
#85 = VECTOR ( 'NONE', #4, 1000.000000000000000 ) ;
#86 = AXIS2_PLACEMENT_3D ( 'NONE', #230, #48, #42 ) ;
#87 = CARTESIAN_POINT ( 'NONE',  ( 12.49999999999999800, 18.99999999999999600, 1.500000000000000000 ) ) ;
#88 = VECTOR ( 'NONE', #66, 1000.000000000000000 ) ;
#89 = LINE ( 'NONE', #93, #202 ) ;
#90 = ADVANCED_BREP_SHAPE_REPRESENTATION ( 'Web Model 46702_32363', ( #176, #199 ), #148 ) ;
#91 = PERSON_AND_ORGANIZATION ( #175, #72 ) ;
#92 = CARTESIAN_POINT ( 'NONE',  ( -12.49999999999999600, -19.00000000000000400, 1.500000000000000000 ) ) ;
#93 = CARTESIAN_POINT ( 'NONE',  ( 12.50000000000000400, -19.00000000000000400, 1.500000000000000000 ) ) ;
#94 = CC_DESIGN_PERSON_AND_ORGANIZATION_ASSIGNMENT ( #129, #115, ( #44 ) ) ;
#95 = ADVANCED_FACE ( 'NONE', ( #213 ), #147, .F. ) ;
#96 = DIRECTION ( 'NONE',  ( -1.000000000000000000, -0.0000000000000000000, -0.0000000000000000000 ) ) ;
#97 = VECTOR ( 'NONE', #184, 1000.000000000000000 ) ;
#98 = DIRECTION ( 'NONE',  ( 1.369518533665900100E-016, -1.000000000000000000, 0.0000000000000000000 ) ) ;
#99 = ORIENTED_EDGE ( 'NONE', *, *, #20, .F. ) ;
#100 = APPROVAL_DATE_TIME ( #167, #229 ) ;
#101 = EDGE_LOOP ( 'NONE', ( #30, #41, #121, #142 ) ) ;
#102 = LINE ( 'NONE', #67, #43 ) ;
#103 = ADVANCED_FACE ( 'NONE', ( #49 ), #26, .F. ) ;
#104 = DIRECTION ( 'NONE',  ( 1.000000000000000000, 0.0000000000000000000, 0.0000000000000000000 ) ) ;
#105 = CC_DESIGN_PERSON_AND_ORGANIZATION_ASSIGNMENT ( #166, #189, ( #44 ) ) ;
#106 = CARTESIAN_POINT ( 'NONE',  ( -12.50000000000000000, 18.99999999999999600, 1.500000000000000000 ) ) ;
#107 = DIRECTION ( 'NONE',  ( 1.000000000000000000, 9.130123557772669600E-017, -0.0000000000000000000 ) ) ;
#108 = COORDINATED_UNIVERSAL_TIME_OFFSET ( 5, 0, .BEHIND. ) ;
#109 = AXIS2_PLACEMENT_3D ( 'NONE', #79, #107, #64 ) ;
#110 = ORIENTED_EDGE ( 'NONE', *, *, #24, .T. ) ;
#111 = CARTESIAN_POINT ( 'NONE',  ( -12.50000000000000000, 18.99999999999999600, 0.0000000000000000000 ) ) ;
#112 = DIRECTION ( 'NONE',  ( -0.0000000000000000000, -0.0000000000000000000, -1.000000000000000000 ) ) ;
#113 = ORIENTED_EDGE ( 'NONE', *, *, #227, .F. ) ;
#114 = CLOSED_SHELL ( 'NONE', ( #237, #37, #141, #95, #217, #103 ) ) ;
#115 = PERSON_AND_ORGANIZATION_ROLE ( 'creator' ) ;
#116 = CARTESIAN_POINT ( 'NONE',  ( -12.49999999999999600, -19.00000000000000400, 1.500000000000000000 ) ) ;
#117 = PLANE ( 'NONE',  #109 ) ;
#118 = DATE_AND_TIME ( #40, #192 ) ;
#119 = SECURITY_CLASSIFICATION ( '', '', #31 ) ;
#120 = EDGE_CURVE ( 'NONE', #63, #3, #154, .T. ) ;
#121 = ORIENTED_EDGE ( 'NONE', *, *, #8, .F. ) ;
#122 = APPROVAL_DATE_TIME ( #118, #159 ) ;
#123 = DIRECTION ( 'NONE',  ( 0.0000000000000000000, -1.000000000000000000, 0.0000000000000000000 ) ) ;
#124 = EDGE_LOOP ( 'NONE', ( #80, #113, #131, #164 ) ) ;
#125 = ORIENTED_EDGE ( 'NONE', *, *, #227, .T. ) ;
#126 = EDGE_CURVE ( 'NONE', #29, #15, #61, .T. ) ;
#127 =( LENGTH_UNIT ( ) NAMED_UNIT ( * ) SI_UNIT ( .MILLI., .METRE. ) );
#128 = FACE_OUTER_BOUND ( 'NONE', #51, .T. ) ;
#129 = PERSON_AND_ORGANIZATION ( #175, #72 ) ;
#130 = CC_DESIGN_PERSON_AND_ORGANIZATION_ASSIGNMENT ( #211, #226, ( #119 ) ) ;
#131 = ORIENTED_EDGE ( 'NONE', *, *, #231, .F. ) ;
#132 = ORIENTED_EDGE ( 'NONE', *, *, #151, .T. ) ;
#133 = CARTESIAN_POINT ( 'NONE',  ( -12.49999999999999600, -19.00000000000000400, 0.0000000000000000000 ) ) ;
#134 = ORIENTED_EDGE ( 'NONE', *, *, #233, .F. ) ;
#135 = CARTESIAN_POINT ( 'NONE',  ( -12.49999999999999600, -19.00000000000000400, 1.500000000000000000 ) ) ;
#136 = AXIS2_PLACEMENT_3D ( 'NONE', #153, #173, #104 ) ;
#137 = DIRECTION ( 'NONE',  ( 0.0000000000000000000, 0.0000000000000000000, 1.000000000000000000 ) ) ;
#138 = FACE_OUTER_BOUND ( 'NONE', #124, .T. ) ;
#139 = VECTOR ( 'NONE', #174, 1000.000000000000000 ) ;
#140 = APPLICATION_PROTOCOL_DEFINITION ( 'international standard', 'config_control_design', 1994, #19 ) ;
#141 = ADVANCED_FACE ( 'NONE', ( #128 ), #117, .F. ) ;
#142 = ORIENTED_EDGE ( 'NONE', *, *, #233, .T. ) ;
#143 = CC_DESIGN_DATE_AND_TIME_ASSIGNMENT ( #17, #157, ( #119 ) ) ;
#144 = UNCERTAINTY_MEASURE_WITH_UNIT (LENGTH_MEASURE( 1.000000000000000100E-005 ), #127, 'distance_accuracy_value', 'NONE');
#145 = COORDINATED_UNIVERSAL_TIME_OFFSET ( 5, 0, .BEHIND. ) ;
#146 = LINE ( 'NONE', #219, #177 ) ;
#147 = PLANE ( 'NONE',  #52 ) ;
#148 =( GEOMETRIC_REPRESENTATION_CONTEXT ( 3 ) GLOBAL_UNCERTAINTY_ASSIGNED_CONTEXT ( ( #144 ) ) GLOBAL_UNIT_ASSIGNED_CONTEXT ( ( #127, #22, #59 ) ) REPRESENTATION_CONTEXT ( 'NONE', 'WORKASPACE' ) );
#149 = CALENDAR_DATE ( 2017, 10, 4 ) ;
#150 = PERSON_AND_ORGANIZATION ( #175, #72 ) ;
#151 = EDGE_CURVE ( 'NONE', #57, #183, #73, .T. ) ;
#152 = APPROVAL_ROLE ( '' ) ;
#153 = CARTESIAN_POINT ( 'NONE',  ( 12.50000000000000400, -19.00000000000000400, 1.500000000000000000 ) ) ;
#154 = LINE ( 'NONE', #81, #139 ) ;
#155 = CARTESIAN_POINT ( 'NONE',  ( 12.50000000000000400, -19.00000000000000400, 0.0000000000000000000 ) ) ;
#156 = COORDINATED_UNIVERSAL_TIME_OFFSET ( 5, 0, .BEHIND. ) ;
#157 = DATE_TIME_ROLE ( 'classification_date' ) ;
#158 = FACE_OUTER_BOUND ( 'NONE', #210, .T. ) ;
#159 = APPROVAL ( #76, 'UNSPECIFIED' ) ;
#160 = DATE_AND_TIME ( #220, #221 ) ;
#161 = VECTOR ( 'NONE', #228, 1000.000000000000000 ) ;
#162 = DIRECTION ( 'NONE',  ( 0.0000000000000000000, -0.0000000000000000000, 1.000000000000000000 ) ) ;
#163 = AXIS2_PLACEMENT_3D ( 'NONE', #32, #181, #98 ) ;
#164 = ORIENTED_EDGE ( 'NONE', *, *, #198, .T. ) ;
#165 = EDGE_LOOP ( 'NONE', ( #99, #205, #55, #34 ) ) ;
#166 = PERSON_AND_ORGANIZATION ( #175, #72 ) ;
#167 = DATE_AND_TIME ( #149, #197 ) ;
#168 = CARTESIAN_POINT ( 'NONE',  ( -12.50000000000000000, 18.99999999999999600, 1.500000000000000000 ) ) ;
#169 = DIRECTION ( 'NONE',  ( -0.0000000000000000000, -0.0000000000000000000, -1.000000000000000000 ) ) ;
#170 = CC_DESIGN_APPROVAL ( #159, ( #119 ) ) ;
#171 = VECTOR ( 'NONE', #222, 1000.000000000000000 ) ;
#172 = CALENDAR_DATE ( 2017, 10, 4 ) ;
#173 = DIRECTION ( 'NONE',  ( -0.0000000000000000000, 0.0000000000000000000, 1.000000000000000000 ) ) ;
#174 = DIRECTION ( 'NONE',  ( -1.000000000000000000, -0.0000000000000000000, -0.0000000000000000000 ) ) ;
#175 = PERSON ( 'UNSPECIFIED', 'UNSPECIFIED', 'UNSPECIFIED', ('UNSPECIFIED'), ('UNSPECIFIED'), ('UNSPECIFIED') ) ;
#176 = MANIFOLD_SOLID_BREP ( 'Extrude1', #114 ) ;
#177 = VECTOR ( 'NONE', #74, 1000.000000000000000 ) ;
#178 = CARTESIAN_POINT ( 'NONE',  ( 12.49999999999999800, 18.99999999999999600, 0.0000000000000000000 ) ) ;
#179 = CARTESIAN_POINT ( 'NONE',  ( 12.50000000000000400, -19.00000000000000400, 1.500000000000000000 ) ) ;
#180 = LINE ( 'NONE', #92, #85 ) ;
#181 = DIRECTION ( 'NONE',  ( -1.000000000000000000, -1.369518533665900100E-016, 0.0000000000000000000 ) ) ;
#182 = CC_DESIGN_SECURITY_CLASSIFICATION ( #119, ( #44 ) ) ;
#183 = VERTEX_POINT ( 'NONE', #62 ) ;
#184 = DIRECTION ( 'NONE',  ( 1.000000000000000000, 0.0000000000000000000, 0.0000000000000000000 ) ) ;
#185 = PLANE ( 'NONE',  #136 ) ;
#186 = PRODUCT ( 'Web Model 46702_32363', 'Web Model 46702_32363', '', ( #7 ) ) ;
#187 = SHAPE_DEFINITION_REPRESENTATION ( #215, #90 ) ;
#188 = DIRECTION ( 'NONE',  ( 0.0000000000000000000, -0.0000000000000000000, -1.000000000000000000 ) ) ;
#189 = PERSON_AND_ORGANIZATION_ROLE ( 'design_supplier' ) ;
#190 = APPROVAL_STATUS ( 'not_yet_approved' ) ;
#191 = PRODUCT_RELATED_PRODUCT_CATEGORY ( 'detail', '', ( #186 ) ) ;
#192 = LOCAL_TIME ( 13, 43, 5.000000000000000000, #38 ) ;
#193 = DIRECTION ( 'NONE',  ( 9.130123557772669600E-017, -1.000000000000000000, 0.0000000000000000000 ) ) ;
#194 = CALENDAR_DATE ( 2017, 10, 4 ) ;
#195 = DIRECTION ( 'NONE',  ( 0.0000000000000000000, 1.000000000000000000, 0.0000000000000000000 ) ) ;
#196 = APPLICATION_PROTOCOL_DEFINITION ( 'international standard', 'config_control_design', 1994, #83 ) ;
#197 = LOCAL_TIME ( 13, 43, 5.000000000000000000, #14 ) ;
#198 = EDGE_CURVE ( 'NONE', #35, #63, #45, .T. ) ;
#199 = AXIS2_PLACEMENT_3D ( 'NONE', #5, #137, #47 ) ;
#200 = LINE ( 'NONE', #201, #161 ) ;
#201 = CARTESIAN_POINT ( 'NONE',  ( -12.50000000000000000, 18.99999999999999600, 0.0000000000000000000 ) ) ;
#202 = VECTOR ( 'NONE', #169, 1000.000000000000000 ) ;
#203 = LOCAL_TIME ( 13, 43, 5.000000000000000000, #108 ) ;
#204 = PLANE ( 'NONE',  #23 ) ;
#205 = ORIENTED_EDGE ( 'NONE', *, *, #126, .F. ) ;
#206 = EDGE_CURVE ( 'NONE', #3, #29, #200, .T. ) ;
#207 = PERSON_AND_ORGANIZATION ( #175, #72 ) ;
#208 = APPROVAL_ROLE ( '' ) ;
#209 = EDGE_CURVE ( 'NONE', #13, #35, #102, .T. ) ;
#210 = EDGE_LOOP ( 'NONE', ( #225, #2, #132, #58 ) ) ;
#211 = PERSON_AND_ORGANIZATION ( #175, #72 ) ;
#212 = CC_DESIGN_PERSON_AND_ORGANIZATION_ASSIGNMENT ( #28, #36, ( #186 ) ) ;
#213 = FACE_OUTER_BOUND ( 'NONE', #101, .T. ) ;
#214 = LINE ( 'NONE', #135, #171 ) ;
#215 = PRODUCT_DEFINITION_SHAPE ( 'NONE', 'NONE',  #218 ) ;
#216 = PLANE ( 'NONE',  #163 ) ;
#217 = ADVANCED_FACE ( 'NONE', ( #158 ), #185, .T. ) ;
#218 = PRODUCT_DEFINITION ( 'UNKNOWN', '', #44, #82 ) ;
#219 = CARTESIAN_POINT ( 'NONE',  ( 12.49999999999999800, 18.99999999999999600, 0.0000000000000000000 ) ) ;
#220 = CALENDAR_DATE ( 2017, 10, 4 ) ;
#221 = LOCAL_TIME ( 13, 43, 5.000000000000000000, #156 ) ;
#222 = DIRECTION ( 'NONE',  ( 1.000000000000000000, 0.0000000000000000000, 0.0000000000000000000 ) ) ;
#223 = VECTOR ( 'NONE', #193, 1000.000000000000000 ) ;
#224 = APPROVAL_PERSON_ORGANIZATION ( #207, #159, #152 ) ;
#225 = ORIENTED_EDGE ( 'NONE', *, *, #209, .T. ) ;
#226 = PERSON_AND_ORGANIZATION_ROLE ( 'classification_officer' ) ;
#227 = EDGE_CURVE ( 'NONE', #57, #3, #75, .T. ) ;
#228 = DIRECTION ( 'NONE',  ( 9.130123557772669600E-017, -1.000000000000000000, 0.0000000000000000000 ) ) ;
#229 = APPROVAL ( #11, 'UNSPECIFIED' ) ;
#230 = CARTESIAN_POINT ( 'NONE',  ( 12.50000000000000400, -19.00000000000000400, 0.0000000000000000000 ) ) ;
#231 = EDGE_CURVE ( 'NONE', #35, #57, #18, .T. ) ;
#232 = DATE_AND_TIME ( #172, #203 ) ;
#233 = EDGE_CURVE ( 'NONE', #183, #29, #180, .T. ) ;
#234 = CC_DESIGN_APPROVAL ( #229, ( #218 ) ) ;
#235 = CARTESIAN_POINT ( 'NONE',  ( -12.50000000000000000, 18.99999999999999600, 1.500000000000000000 ) ) ;
#236 = CARTESIAN_POINT ( 'NONE',  ( 12.49999999999999800, 18.99999999999999600, 1.500000000000000000 ) ) ;
#237 = ADVANCED_FACE ( 'NONE', ( #21 ), #216, .F. ) ;
ENDSEC;
END-ISO-10303-21;
