ISO-10303-21;
HEADER;
FILE_DESCRIPTION (( 'STEP AP203' ),
    '1' );
FILE_NAME ('20119-E0W.STEP',
    '2015-07-10T15:27:23',
    ( 'Admin' ),
    ( '' ),
    'SwSTEP 2.0',
    'SolidWorks 2014',
    '' );
FILE_SCHEMA (( 'CONFIG_CONTROL_DESIGN' ));
ENDSEC;

DATA;
#1 = CYLINDRICAL_SURFACE ( 'NONE', #115, 12.70000000000000100 ) ;
#2 = DIRECTION ( 'NONE',  ( 8.659560562354913100E-017, 0.7071067811865456900, 0.7071067811865493500 ) ) ;
#3 = DIRECTION ( 'NONE',  ( 0.0000000000000000000, 1.000000000000000000, 3.061515884555943100E-016 ) ) ;
#4 = DIRECTION ( 'NONE',  ( 0.0000000000000000000, 1.000000000000000000, 3.073328992872295900E-016 ) ) ;
#5 = EDGE_CURVE ( 'NONE', #121, #130, #52, .T. ) ;
#6 = EDGE_CURVE ( 'NONE', #224, #216, #275, .T. ) ;
#7 = CIRCLE ( 'NONE', #172, 12.70000000000000300 ) ;
#8 = CC_DESIGN_PERSON_AND_ORGANIZATION_ASSIGNMENT ( #247, #220, ( #217 ) ) ;
#9 = FACE_OUTER_BOUND ( 'NONE', #93, .T. ) ;
#10 = CARTESIAN_POINT ( 'NONE',  ( 0.0000000000000000000, 8.547752349680199000E-016, -2.000000000000001800 ) ) ;
#11 = MANIFOLD_SOLID_BREP ( '20119-001-1-solid1', #70 ) ;
#12 = ORIENTED_EDGE ( 'NONE', *, *, #80, .F. ) ;
#13 = EDGE_LOOP ( 'NONE', ( #198, #162, #174, #188 ) ) ;
#14 = DIRECTION ( 'NONE',  ( -0.0000000000000000000, 3.061515884555943100E-016, -1.000000000000000000 ) ) ;
#15 = CARTESIAN_POINT ( 'NONE',  ( 0.0000000000000000000, -2.702187086160233300E-016, 1.674630431477304600 ) ) ;
#16 = ADVANCED_FACE ( 'NONE', ( #237 ), #107, .T. ) ;
#17 = VECTOR ( 'NONE', #279, 1000.000000000000000 ) ;
#18 = APPROVAL_PERSON_ORGANIZATION ( #241, #138, #230 ) ;
#19 = CARTESIAN_POINT ( 'NONE',  ( 0.0000000000000000000, 2.933054678039972400E-014, -240.5299999999996900 ) ) ;
#20 = EDGE_CURVE ( 'NONE', #216, #104, #211, .T. ) ;
#21 = ORIENTED_EDGE ( 'NONE', *, *, #37, .F. ) ;
#22 = CONICAL_SURFACE ( 'NONE', #282, 12.69999999999999900, 0.7853981633979773000 ) ;
#23 = LINE ( 'NONE', #61, #143 ) ;
#24 = LOCAL_TIME ( 11, 27, 23.00000000000000000, #199 ) ;
#25 = APPROVAL_DATE_TIME ( #255, #183 ) ;
#26 = PLANE ( 'NONE',  #208 ) ;
#27 = APPROVAL_PERSON_ORGANIZATION ( #122, #183, #171 ) ;
#28 = CARTESIAN_POINT ( 'NONE',  ( 0.0000000000000000000, -12.55857864376269400, -2.000000000000008000 ) ) ;
#29 = COORDINATED_UNIVERSAL_TIME_OFFSET ( 5, 0, .BEHIND. ) ;
#30 = ORIENTED_EDGE ( 'NONE', *, *, #62, .T. ) ;
#31 = PRODUCT_DEFINITION_FORMATION_WITH_SPECIFIED_SOURCE ( 'ANY', '', #91, .NOT_KNOWN. ) ;
#32 = EDGE_LOOP ( 'NONE', ( #204, #191, #252, #157 ) ) ;
#33 = DIRECTION ( 'NONE',  ( 8.659560562359514400E-017, -0.7071067811869213800, -0.7071067811861736500 ) ) ;
#34 = EDGE_CURVE ( 'NONE', #130, #142, #68, .T. ) ;
#35 = FACE_OUTER_BOUND ( 'NONE', #13, .T. ) ;
#36 = EDGE_CURVE ( 'NONE', #104, #142, #23, .T. ) ;
#37 = EDGE_CURVE ( 'NONE', #216, #126, #229, .T. ) ;
#38 = DIRECTION ( 'NONE',  ( 0.0000000000000000000, 0.7071067811869218300, -0.7071067811861732100 ) ) ;
#39 = CONICAL_SURFACE ( 'NONE', #47, 12.69999999999999900, 0.7853981633979773000 ) ;
#40 = LOCAL_TIME ( 11, 27, 23.00000000000000000, #185 ) ;
#41 = UNCERTAINTY_MEASURE_WITH_UNIT (LENGTH_MEASURE( 1.000000000000000100E-005 ), #119, 'distance_accuracy_value', 'NONE');
#42 = CARTESIAN_POINT ( 'NONE',  ( 0.0000000000000000000, -2.269223357624697300E-016, 1.533209075240135900 ) ) ;
#43 = DIRECTION ( 'NONE',  ( 0.0000000000000000000, 1.000000000000000000, 3.107937555406666100E-016 ) ) ;
#44 = DIRECTION ( 'NONE',  ( 1.000000000000000000, 1.224646799147353200E-016, 3.749275628560213600E-032 ) ) ;
#45 = DIRECTION ( 'NONE',  ( 0.0000000000000000000, 1.000000000000000000, 3.433254725060272700E-016 ) ) ;
#46 = DIRECTION ( 'NONE',  ( -1.000000000000000000, 0.0000000000000000000, 0.0000000000000000000 ) ) ;
#47 = AXIS2_PLACEMENT_3D ( 'NONE', #42, #108, #96 ) ;
#48 = APPLICATION_CONTEXT ( 'configuration controlled 3d designs of mechanical parts and assemblies' ) ;
#49 = DIRECTION ( 'NONE',  ( -0.0000000000000000000, 3.061515884555943100E-016, -1.000000000000000000 ) ) ;
#50 = CARTESIAN_POINT ( 'NONE',  ( 0.0000000000000000000, -2.269223357624697300E-016, 1.533209075240135900 ) ) ;
#51 = PERSON_AND_ORGANIZATION_ROLE ( 'design_owner' ) ;
#52 = CIRCLE ( 'NONE', #95, 12.55857864376269400 ) ;
#53 = AXIS2_PLACEMENT_3D ( 'NONE', #50, #49, #102 ) ;
#54 = CARTESIAN_POINT ( 'NONE',  ( 0.0000000000000000000, 8.547752349680204900E-016, -2.000000000000004000 ) ) ;
#55 = EDGE_CURVE ( 'NONE', #121, #126, #271, .T. ) ;
#56 = CIRCLE ( 'NONE', #156, 12.55857864376269400 ) ;
#57 = CC_DESIGN_DATE_AND_TIME_ASSIGNMENT ( #197, #123, ( #136 ) ) ;
#58 = DIRECTION ( 'NONE',  ( 0.0000000000000000000, 1.000000000000000000, 3.073328992872295400E-016 ) ) ;
#59 = EDGE_LOOP ( 'NONE', ( #141, #148, #267, #30 ) ) ;
#60 = PERSON_AND_ORGANIZATION ( #233, #75 ) ;
#61 = CARTESIAN_POINT ( 'NONE',  ( 1.555301434917138600E-015, -12.70000000000000100, -2.000000000000004000 ) ) ;
#62 = EDGE_CURVE ( 'NONE', #142, #126, #7, .T. ) ;
#63 = MECHANICAL_CONTEXT ( 'NONE', #48, 'mechanical' ) ;
#64 = CARTESIAN_POINT ( 'NONE',  ( 1.537982313792429100E-015, 12.55857864376269400, -2.000000000000000000 ) ) ;
#65 = CARTESIAN_POINT ( 'NONE',  ( 0.0000000000000000000, -12.55857864376269400, -2.000000000000008000 ) ) ;
#66 = DIRECTION ( 'NONE',  ( 0.0000000000000000000, 1.000000000000000000, 3.107937555406663600E-016 ) ) ;
#67 = CC_DESIGN_SECURITY_CLASSIFICATION ( #217, ( #31 ) ) ;
#68 = LINE ( 'NONE', #28, #17 ) ;
#69 = CARTESIAN_POINT ( 'NONE',  ( 0.0000000000000000000, 2.933054678039972400E-014, -240.5299999999996900 ) ) ;
#70 = CLOSED_SHELL ( 'NONE', ( #260, #111, #83, #132, #179, #16, #245, #243, #261 ) ) ;
#71 = DIRECTION ( 'NONE',  ( 0.0000000000000000000, 1.000000000000000000, 3.073328992872295400E-016 ) ) ;
#72 = CC_DESIGN_APPROVAL ( #183, ( #136 ) ) ;
#73 = SHAPE_DEFINITION_REPRESENTATION ( #285, #78 ) ;
#74 = DIRECTION ( 'NONE',  ( -0.0000000000000000000, 3.061515884555943100E-016, -1.000000000000000000 ) ) ;
#75 = ORGANIZATION ( 'UNSPECIFIED', 'UNSPECIFIED', '' ) ;
#76 = ORIENTED_EDGE ( 'NONE', *, *, #6, .T. ) ;
#77 = CARTESIAN_POINT ( 'NONE',  ( 1.555301434917139000E-015, -12.70000000000000500, -1.858578643762697400 ) ) ;
#78 = ADVANCED_BREP_SHAPE_REPRESENTATION ( '20119-E0W', ( #11, #239 ), #203 ) ;
#79 = DIRECTION ( 'NONE',  ( 1.000000000000000000, 0.0000000000000000000, 0.0000000000000000000 ) ) ;
#80 = EDGE_CURVE ( 'NONE', #170, #221, #263, .T. ) ;
#81 = CARTESIAN_POINT ( 'NONE',  ( 1.555301434917138400E-015, -12.69999999999999900, 1.533209075240131900 ) ) ;
#82 = CARTESIAN_POINT ( 'NONE',  ( 0.0000000000000000000, 8.547752349680204900E-016, -2.000000000000004000 ) ) ;
#83 = ADVANCED_FACE ( 'NONE', ( #35 ), #39, .T. ) ;
#84 = CALENDAR_DATE ( 2015, 10, 7 ) ;
#85 = EDGE_CURVE ( 'NONE', #126, #142, #87, .T. ) ;
#86 = DIRECTION ( 'NONE',  ( -0.0000000000000000000, 3.061515884555943100E-016, -1.000000000000000000 ) ) ;
#87 = CIRCLE ( 'NONE', #210, 12.70000000000000300 ) ;
#88 = CC_DESIGN_PERSON_AND_ORGANIZATION_ASSIGNMENT ( #60, #51, ( #91 ) ) ;
#89 = COORDINATED_UNIVERSAL_TIME_OFFSET ( 5, 0, .BEHIND. ) ;
#90 = CC_DESIGN_DATE_AND_TIME_ASSIGNMENT ( #234, #218, ( #217 ) ) ;
#91 = PRODUCT ( '20119-E0W', '20119-E0W', '', ( #63 ) ) ;
#92 = CARTESIAN_POINT ( 'NONE',  ( 0.0000000000000000000, 8.547752349680193100E-016, -2.000000000000000000 ) ) ;
#93 = EDGE_LOOP ( 'NONE', ( #298, #150, #146, #21 ) ) ;
#94 = DIRECTION ( 'NONE',  ( 0.0000000000000000000, 0.0000000000000000000, 1.000000000000000000 ) ) ;
#95 = AXIS2_PLACEMENT_3D ( 'NONE', #54, #281, #66 ) ;
#96 = DIRECTION ( 'NONE',  ( 0.0000000000000000000, 1.000000000000000000, 3.073328992872296400E-016 ) ) ;
#97 = CARTESIAN_POINT ( 'NONE',  ( 0.0000000000000000000, 12.70000000000000100, -1.999999999999996200 ) ) ;
#98 = DIRECTION ( 'NONE',  ( 0.0000000000000000000, 1.000000000000000000, 3.073328992872295900E-016 ) ) ;
#99 = CARTESIAN_POINT ( 'NONE',  ( 0.0000000000000000000, 0.0000000000000000000, 0.0000000000000000000 ) ) ;
#100 = CARTESIAN_POINT ( 'NONE',  ( 0.0000000000000000000, 12.70000000000000300, -1.858578643762689700 ) ) ;
#101 = FACE_OUTER_BOUND ( 'NONE', #144, .T. ) ;
#102 = DIRECTION ( 'NONE',  ( 0.0000000000000000000, 1.000000000000000000, 3.073328992872295900E-016 ) ) ;
#103 = APPLICATION_PROTOCOL_DEFINITION ( 'international standard', 'config_control_design', 1994, #48 ) ;
#104 = VERTEX_POINT ( 'NONE', #81 ) ;
#105 = ORIENTED_EDGE ( 'NONE', *, *, #128, .F. ) ;
#106 = CARTESIAN_POINT ( 'NONE',  ( 0.0000000000000000000, 2.933054678039972400E-014, -240.5299999999996900 ) ) ;
#107 = SPHERICAL_SURFACE ( 'NONE', #164, 242.5299999999998300 ) ;
#108 = DIRECTION ( 'NONE',  ( -0.0000000000000000000, 3.061515884555943100E-016, -1.000000000000000000 ) ) ;
#109 = VECTOR ( 'NONE', #38, 1000.000000000000000 ) ;
#110 = CC_DESIGN_APPROVAL ( #138, ( #217 ) ) ;
#111 = ADVANCED_FACE ( 'NONE', ( #9 ), #1, .T. ) ;
#112 = CONICAL_SURFACE ( 'NONE', #176, 12.55857864376269400, 0.7853981633974460600 ) ;
#113 = DIRECTION ( 'NONE',  ( 1.000000000000000000, 0.0000000000000000000, -0.0000000000000000000 ) ) ;
#114 = APPROVAL ( #134, 'UNSPECIFIED' ) ;
#115 = AXIS2_PLACEMENT_3D ( 'NONE', #92, #86, #98 ) ;
#116 =( NAMED_UNIT ( * ) SI_UNIT ( $, .STERADIAN. ) SOLID_ANGLE_UNIT ( ) );
#117 = DIRECTION ( 'NONE',  ( 1.000000000000000000, 0.0000000000000000000, -0.0000000000000000000 ) ) ;
#118 = CARTESIAN_POINT ( 'NONE',  ( 0.0000000000000000000, 12.69999999999999900, 1.533209075240139900 ) ) ;
#119 =( LENGTH_UNIT ( ) NAMED_UNIT ( * ) SI_UNIT ( .MILLI., .METRE. ) );
#120 = AXIS2_PLACEMENT_3D ( 'NONE', #106, #113, #201 ) ;
#121 = VERTEX_POINT ( 'NONE', #127 ) ;
#122 = PERSON_AND_ORGANIZATION ( #233, #75 ) ;
#123 = DATE_TIME_ROLE ( 'creation_date' ) ;
#124 = ORIENTED_EDGE ( 'NONE', *, *, #5, .T. ) ;
#125 = AXIS2_PLACEMENT_3D ( 'NONE', #236, #254, #299 ) ;
#126 = VERTEX_POINT ( 'NONE', #100 ) ;
#127 = CARTESIAN_POINT ( 'NONE',  ( 1.546641874354783800E-015, 12.55857864376269400, -2.000000000000000000 ) ) ;
#128 = EDGE_CURVE ( 'NONE', #104, #216, #133, .T. ) ;
#129 = APPLICATION_CONTEXT ( 'configuration controlled 3d designs of mechanical parts and assemblies' ) ;
#130 = VERTEX_POINT ( 'NONE', #65 ) ;
#131 = AXIS2_PLACEMENT_3D ( 'NONE', #15, #297, #277 ) ;
#132 = ADVANCED_FACE ( 'NONE', ( #180 ), #202, .T. ) ;
#133 = CIRCLE ( 'NONE', #53, 12.70000000000000100 ) ;
#134 = APPROVAL_STATUS ( 'not_yet_approved' ) ;
#135 = ORIENTED_EDGE ( 'NONE', *, *, #37, .T. ) ;
#136 = PRODUCT_DEFINITION ( 'UNKNOWN', '', #31, #238 ) ;
#137 = DIRECTION ( 'NONE',  ( 0.0000000000000000000, -1.000000000000000000, -3.107937555406663600E-016 ) ) ;
#138 = APPROVAL ( #235, 'UNSPECIFIED' ) ;
#139 = APPROVAL_STATUS ( 'not_yet_approved' ) ;
#140 = ORIENTED_EDGE ( 'NONE', *, *, #240, .F. ) ;
#141 = ORIENTED_EDGE ( 'NONE', *, *, #55, .F. ) ;
#142 = VERTEX_POINT ( 'NONE', #77 ) ;
#143 = VECTOR ( 'NONE', #259, 1000.000000000000000 ) ;
#144 = EDGE_LOOP ( 'NONE', ( #140, #200, #76, #105 ) ) ;
#145 = DIRECTION ( 'NONE',  ( -0.0000000000000000000, 3.061515884555943100E-016, -1.000000000000000000 ) ) ;
#146 = ORIENTED_EDGE ( 'NONE', *, *, #85, .F. ) ;
#147 =( NAMED_UNIT ( * ) PLANE_ANGLE_UNIT ( ) SI_UNIT ( $, .RADIAN. ) );
#148 = ORIENTED_EDGE ( 'NONE', *, *, #209, .F. ) ;
#149 = AXIS2_PLACEMENT_3D ( 'NONE', #273, #44, #280 ) ;
#150 = ORIENTED_EDGE ( 'NONE', *, *, #36, .T. ) ;
#151 = ORIENTED_EDGE ( 'NONE', *, *, #62, .F. ) ;
#152 = PERSON_AND_ORGANIZATION ( #233, #75 ) ;
#153 = PERSON_AND_ORGANIZATION ( #233, #75 ) ;
#154 = EDGE_LOOP ( 'NONE', ( #206, #173, #135, #151 ) ) ;
#155 = DIRECTION ( 'NONE',  ( 0.0000000000000000000, 0.0000000000000000000, 1.000000000000000000 ) ) ;
#156 = AXIS2_PLACEMENT_3D ( 'NONE', #291, #264, #294 ) ;
#157 = ORIENTED_EDGE ( 'NONE', *, *, #34, .F. ) ;
#158 = EDGE_CURVE ( 'NONE', #221, #224, #289, .T. ) ;
#159 = CONICAL_SURFACE ( 'NONE', #250, 12.55857864376269400, 0.7853981633974460600 ) ;
#160 = APPROVAL_ROLE ( '' ) ;
#161 = LOCAL_TIME ( 11, 27, 23.00000000000000000, #89 ) ;
#162 = ORIENTED_EDGE ( 'NONE', *, *, #240, .T. ) ;
#163 = PERSON_AND_ORGANIZATION_ROLE ( 'creator' ) ;
#164 = AXIS2_PLACEMENT_3D ( 'NONE', #69, #117, #45 ) ;
#165 = APPLICATION_PROTOCOL_DEFINITION ( 'international standard', 'config_control_design', 1994, #129 ) ;
#166 = ORIENTED_EDGE ( 'NONE', *, *, #181, .T. ) ;
#167 = ORIENTED_EDGE ( 'NONE', *, *, #209, .T. ) ;
#168 = ORIENTED_EDGE ( 'NONE', *, *, #181, .F. ) ;
#169 = CALENDAR_DATE ( 2015, 10, 7 ) ;
#170 = VERTEX_POINT ( 'NONE', #231 ) ;
#171 = APPROVAL_ROLE ( '' ) ;
#172 = AXIS2_PLACEMENT_3D ( 'NONE', #266, #244, #58 ) ;
#173 = ORIENTED_EDGE ( 'NONE', *, *, #128, .T. ) ;
#174 = ORIENTED_EDGE ( 'NONE', *, *, #20, .F. ) ;
#175 = APPROVAL_DATE_TIME ( #190, #114 ) ;
#176 = AXIS2_PLACEMENT_3D ( 'NONE', #82, #257, #242 ) ;
#177 = AXIS2_PLACEMENT_3D ( 'NONE', #19, #46, #155 ) ;
#178 = FACE_OUTER_BOUND ( 'NONE', #32, .T. ) ;
#179 = ADVANCED_FACE ( 'NONE', ( #295 ), #26, .T. ) ;
#180 = FACE_OUTER_BOUND ( 'NONE', #225, .T. ) ;
#181 = EDGE_CURVE ( 'NONE', #170, #224, #246, .T. ) ;
#182 = CIRCLE ( 'NONE', #272, 12.55857864376268300 ) ;
#183 = APPROVAL ( #139, 'UNSPECIFIED' ) ;
#184 = LOCAL_TIME ( 11, 27, 23.00000000000000000, #29 ) ;
#185 = COORDINATED_UNIVERSAL_TIME_OFFSET ( 5, 0, .BEHIND. ) ;
#186 = ORIENTED_EDGE ( 'NONE', *, *, #287, .F. ) ;
#187 = PERSON_AND_ORGANIZATION ( #233, #75 ) ;
#188 = ORIENTED_EDGE ( 'NONE', *, *, #6, .F. ) ;
#189 = VECTOR ( 'NONE', #2, 1000.000000000000000 ) ;
#190 = DATE_AND_TIME ( #169, #161 ) ;
#191 = ORIENTED_EDGE ( 'NONE', *, *, #55, .T. ) ;
#192 = CYLINDRICAL_SURFACE ( 'NONE', #258, 12.70000000000000100 ) ;
#193 = CARTESIAN_POINT ( 'NONE',  ( 1.555301434917138400E-015, -12.69999999999999900, 1.533209075240131900 ) ) ;
#194 = PERSON_AND_ORGANIZATION ( #233, #75 ) ;
#195 = FACE_OUTER_BOUND ( 'NONE', #59, .T. ) ;
#196 = EDGE_LOOP ( 'NONE', ( #167, #124 ) ) ;
#197 = DATE_AND_TIME ( #286, #24 ) ;
#198 = ORIENTED_EDGE ( 'NONE', *, *, #287, .T. ) ;
#199 = COORDINATED_UNIVERSAL_TIME_OFFSET ( 5, 0, .BEHIND. ) ;
#200 = ORIENTED_EDGE ( 'NONE', *, *, #158, .T. ) ;
#201 = DIRECTION ( 'NONE',  ( 0.0000000000000000000, 1.000000000000000000, 3.433254725060272700E-016 ) ) ;
#202 = SPHERICAL_SURFACE ( 'NONE', #120, 242.5299999999998300 ) ;
#203 =( GEOMETRIC_REPRESENTATION_CONTEXT ( 3 ) GLOBAL_UNCERTAINTY_ASSIGNED_CONTEXT ( ( #41 ) ) GLOBAL_UNIT_ASSIGNED_CONTEXT ( ( #119, #147, #116 ) ) REPRESENTATION_CONTEXT ( 'NONE', 'WORKASPACE' ) );
#204 = ORIENTED_EDGE ( 'NONE', *, *, #5, .F. ) ;
#205 = SECURITY_CLASSIFICATION_LEVEL ( 'unclassified' ) ;
#206 = ORIENTED_EDGE ( 'NONE', *, *, #36, .F. ) ;
#207 = ORIENTED_EDGE ( 'NONE', *, *, #158, .F. ) ;
#208 = AXIS2_PLACEMENT_3D ( 'NONE', #10, #14, #3 ) ;
#209 = EDGE_CURVE ( 'NONE', #130, #121, #56, .T. ) ;
#210 = AXIS2_PLACEMENT_3D ( 'NONE', #212, #74, #71 ) ;
#211 = CIRCLE ( 'NONE', #125, 12.70000000000000100 ) ;
#212 = CARTESIAN_POINT ( 'NONE',  ( 0.0000000000000000000, 8.114788621144234600E-016, -1.858578643762693700 ) ) ;
#213 = CC_DESIGN_PERSON_AND_ORGANIZATION_ASSIGNMENT ( #152, #163, ( #31 ) ) ;
#214 = PERSON_AND_ORGANIZATION_ROLE ( 'creator' ) ;
#215 = ORIENTED_EDGE ( 'NONE', *, *, #80, .T. ) ;
#216 = VERTEX_POINT ( 'NONE', #293 ) ;
#217 = SECURITY_CLASSIFICATION ( '', '', #205 ) ;
#218 = DATE_TIME_ROLE ( 'classification_date' ) ;
#219 = EDGE_LOOP ( 'NONE', ( #12, #166, #207 ) ) ;
#220 = PERSON_AND_ORGANIZATION_ROLE ( 'classification_officer' ) ;
#221 = VERTEX_POINT ( 'NONE', #296 ) ;
#222 = APPROVAL_PERSON_ORGANIZATION ( #153, #114, #160 ) ;
#223 = FACE_OUTER_BOUND ( 'NONE', #154, .T. ) ;
#224 = VERTEX_POINT ( 'NONE', #288 ) ;
#225 = EDGE_LOOP ( 'NONE', ( #168, #215, #186 ) ) ;
#226 = PERSON_AND_ORGANIZATION_ROLE ( 'design_supplier' ) ;
#227 = CC_DESIGN_APPROVAL ( #114, ( #31 ) ) ;
#228 = DIRECTION ( 'NONE',  ( 0.0000000000000000000, -3.061515884555943100E-016, 1.000000000000000000 ) ) ;
#229 = LINE ( 'NONE', #97, #284 ) ;
#230 = APPROVAL_ROLE ( '' ) ;
#231 = CARTESIAN_POINT ( 'NONE',  ( 0.0000000000000000000, -3.006971855787513500E-014, 2.000000000000140300 ) ) ;
#232 = CALENDAR_DATE ( 2015, 10, 7 ) ;
#233 = PERSON ( 'UNSPECIFIED', 'UNSPECIFIED', 'UNSPECIFIED', ('UNSPECIFIED'), ('UNSPECIFIED'), ('UNSPECIFIED') ) ;
#234 = DATE_AND_TIME ( #278, #40 ) ;
#235 = APPROVAL_STATUS ( 'not_yet_approved' ) ;
#236 = CARTESIAN_POINT ( 'NONE',  ( 0.0000000000000000000, -2.269223357624697300E-016, 1.533209075240135900 ) ) ;
#237 = FACE_OUTER_BOUND ( 'NONE', #219, .T. ) ;
#238 = DESIGN_CONTEXT ( 'detailed design', #129, 'design' ) ;
#239 = AXIS2_PLACEMENT_3D ( 'NONE', #99, #94, #79 ) ;
#240 = EDGE_CURVE ( 'NONE', #221, #104, #301, .T. ) ;
#241 = PERSON_AND_ORGANIZATION ( #233, #75 ) ;
#242 = DIRECTION ( 'NONE',  ( 0.0000000000000000000, -1.000000000000000000, -3.107937555406663600E-016 ) ) ;
#243 = ADVANCED_FACE ( 'NONE', ( #223 ), #192, .T. ) ;
#244 = DIRECTION ( 'NONE',  ( -0.0000000000000000000, 3.061515884555943100E-016, -1.000000000000000000 ) ) ;
#245 = ADVANCED_FACE ( 'NONE', ( #101 ), #22, .T. ) ;
#246 = CIRCLE ( 'NONE', #177, 242.5299999999998300 ) ;
#247 = PERSON_AND_ORGANIZATION ( #233, #75 ) ;
#248 = LOCAL_TIME ( 11, 27, 23.00000000000000000, #292 ) ;
#249 = PRODUCT_RELATED_PRODUCT_CATEGORY ( 'detail', '', ( #91 ) ) ;
#250 = AXIS2_PLACEMENT_3D ( 'NONE', #251, #228, #137 ) ;
#251 = CARTESIAN_POINT ( 'NONE',  ( 0.0000000000000000000, 8.547752349680204900E-016, -2.000000000000004000 ) ) ;
#252 = ORIENTED_EDGE ( 'NONE', *, *, #85, .T. ) ;
#253 = DIRECTION ( 'NONE',  ( -0.0000000000000000000, 3.061515884555943100E-016, -1.000000000000000000 ) ) ;
#254 = DIRECTION ( 'NONE',  ( -0.0000000000000000000, 3.061515884555943100E-016, -1.000000000000000000 ) ) ;
#255 = DATE_AND_TIME ( #232, #248 ) ;
#256 = DIRECTION ( 'NONE',  ( 0.0000000000000000000, 1.000000000000000000, 3.073328992872296400E-016 ) ) ;
#257 = DIRECTION ( 'NONE',  ( 0.0000000000000000000, -3.061515884555943100E-016, 1.000000000000000000 ) ) ;
#258 = AXIS2_PLACEMENT_3D ( 'NONE', #262, #269, #4 ) ;
#259 = DIRECTION ( 'NONE',  ( -0.0000000000000000000, 3.061515884555943100E-016, -1.000000000000000000 ) ) ;
#260 = ADVANCED_FACE ( 'NONE', ( #178 ), #159, .T. ) ;
#261 = ADVANCED_FACE ( 'NONE', ( #195 ), #112, .T. ) ;
#262 = CARTESIAN_POINT ( 'NONE',  ( 0.0000000000000000000, 8.547752349680193100E-016, -2.000000000000000000 ) ) ;
#263 = CIRCLE ( 'NONE', #149, 242.5299999999998300 ) ;
#264 = DIRECTION ( 'NONE',  ( -0.0000000000000000000, 3.061515884555943100E-016, -1.000000000000000000 ) ) ;
#265 = CC_DESIGN_PERSON_AND_ORGANIZATION_ASSIGNMENT ( #194, #226, ( #31 ) ) ;
#266 = CARTESIAN_POINT ( 'NONE',  ( 0.0000000000000000000, 8.114788621144234600E-016, -1.858578643762693700 ) ) ;
#267 = ORIENTED_EDGE ( 'NONE', *, *, #34, .T. ) ;
#268 = VECTOR ( 'NONE', #33, 1000.000000000000000 ) ;
#269 = DIRECTION ( 'NONE',  ( -0.0000000000000000000, 3.061515884555943100E-016, -1.000000000000000000 ) ) ;
#270 = APPROVAL_DATE_TIME ( #276, #138 ) ;
#271 = LINE ( 'NONE', #64, #189 ) ;
#272 = AXIS2_PLACEMENT_3D ( 'NONE', #283, #274, #43 ) ;
#273 = CARTESIAN_POINT ( 'NONE',  ( 0.0000000000000000000, 2.933054678039972400E-014, -240.5299999999996900 ) ) ;
#274 = DIRECTION ( 'NONE',  ( -0.0000000000000000000, 3.061515884555943100E-016, -1.000000000000000000 ) ) ;
#275 = LINE ( 'NONE', #118, #109 ) ;
#276 = DATE_AND_TIME ( #84, #184 ) ;
#277 = DIRECTION ( 'NONE',  ( 0.0000000000000000000, 1.000000000000000000, 3.107937555406666100E-016 ) ) ;
#278 = CALENDAR_DATE ( 2015, 10, 7 ) ;
#279 = DIRECTION ( 'NONE',  ( 0.0000000000000000000, -0.7071067811865462400, 0.7071067811865489100 ) ) ;
#280 = DIRECTION ( 'NONE',  ( -1.224646799147353200E-016, 1.000000000000000000, 0.0000000000000000000 ) ) ;
#281 = DIRECTION ( 'NONE',  ( -0.0000000000000000000, 3.061515884555943100E-016, -1.000000000000000000 ) ) ;
#282 = AXIS2_PLACEMENT_3D ( 'NONE', #300, #253, #256 ) ;
#283 = CARTESIAN_POINT ( 'NONE',  ( 0.0000000000000000000, -2.702187086160233300E-016, 1.674630431477304600 ) ) ;
#284 = VECTOR ( 'NONE', #145, 1000.000000000000000 ) ;
#285 = PRODUCT_DEFINITION_SHAPE ( 'NONE', 'NONE',  #136 ) ;
#286 = CALENDAR_DATE ( 2015, 10, 7 ) ;
#287 = EDGE_CURVE ( 'NONE', #224, #221, #182, .T. ) ;
#288 = CARTESIAN_POINT ( 'NONE',  ( 0.0000000000000000000, 12.55857864376247000, 1.674630431477308600 ) ) ;
#289 = CIRCLE ( 'NONE', #131, 12.55857864376268300 ) ;
#290 = CC_DESIGN_PERSON_AND_ORGANIZATION_ASSIGNMENT ( #187, #214, ( #136 ) ) ;
#291 = CARTESIAN_POINT ( 'NONE',  ( 0.0000000000000000000, 8.547752349680204900E-016, -2.000000000000004000 ) ) ;
#292 = COORDINATED_UNIVERSAL_TIME_OFFSET ( 5, 0, .BEHIND. ) ;
#293 = CARTESIAN_POINT ( 'NONE',  ( 0.0000000000000000000, 12.69999999999999900, 1.533209075240139900 ) ) ;
#294 = DIRECTION ( 'NONE',  ( 0.0000000000000000000, 1.000000000000000000, 3.107937555406663600E-016 ) ) ;
#295 = FACE_OUTER_BOUND ( 'NONE', #196, .T. ) ;
#296 = CARTESIAN_POINT ( 'NONE',  ( 1.537982313792401400E-015, -12.55857864376251200, 1.674630431477304600 ) ) ;
#297 = DIRECTION ( 'NONE',  ( -0.0000000000000000000, 3.061515884555943100E-016, -1.000000000000000000 ) ) ;
#298 = ORIENTED_EDGE ( 'NONE', *, *, #20, .T. ) ;
#299 = DIRECTION ( 'NONE',  ( 0.0000000000000000000, 1.000000000000000000, 3.073328992872295900E-016 ) ) ;
#300 = CARTESIAN_POINT ( 'NONE',  ( 0.0000000000000000000, -2.269223357624697300E-016, 1.533209075240135900 ) ) ;
#301 = LINE ( 'NONE', #193, #268 ) ;
ENDSEC;
END-ISO-10303-21;
