ISO-10303-21;
HEADER;
FILE_DESCRIPTION (( 'STEP AP214' ),
    '1' );
FILE_NAME ('4471-E0W.STEP',
    '2009-12-21T17:05:46',
    ( ' ' ),
    ( ' ' ),
    'SwSTEP 2.0',
    'SolidWorks 2009',
    '' );
FILE_SCHEMA (( 'AUTOMOTIVE_DESIGN' ));
ENDSEC;

DATA;
#1 = ADVANCED_FACE ( 'NONE', ( #79 ), #70, .T. ) ;
#2 = EDGE_CURVE ( 'NONE', #34, #59, #78, .T. ) ;
#3 = VERTEX_POINT ( 'NONE', #66 ) ;
#4 = ORIENTED_EDGE ( 'NONE', *, *, #19, .F. ) ;
#5 = ORIENTED_EDGE ( 'NONE', *, *, #19, .T. ) ;
#6 = ORIENTED_EDGE ( 'NONE', *, *, #7, .F. ) ;
#7 = EDGE_CURVE ( 'NONE', #20, #3, #54, .T. ) ;
#8 = EDGE_CURVE ( 'NONE', #29, #10, #91, .T. ) ;
#9 = EDGE_LOOP ( 'NONE', ( #4, #18, #33, #24 ) ) ;
#10 = VERTEX_POINT ( 'NONE', #99 ) ;
#11 = ADVANCED_FACE ( 'NONE', ( #94 ), #108, .T. ) ;
#12 = ORIENTED_EDGE ( 'NONE', *, *, #22, .F. ) ;
#13 = ORIENTED_EDGE ( 'NONE', *, *, #38, .T. ) ;
#14 = ORIENTED_EDGE ( 'NONE', *, *, #2, .T. ) ;
#15 = ORIENTED_EDGE ( 'NONE', *, *, #28, .T. ) ;
#16 = ORIENTED_EDGE ( 'NONE', *, *, #60, .F. ) ;
#17 = ORIENTED_EDGE ( 'NONE', *, *, #22, .T. ) ;
#18 = ORIENTED_EDGE ( 'NONE', *, *, #23, .T. ) ;
#19 = EDGE_CURVE ( 'NONE', #10, #3, #113, .T. ) ;
#20 = VERTEX_POINT ( 'NONE', #142 ) ;
#21 = EDGE_LOOP ( 'NONE', ( #32, #13, #14, #39, #27 ) ) ;
#22 = EDGE_CURVE ( 'NONE', #34, #35, #143, .T. ) ;
#23 = EDGE_CURVE ( 'NONE', #10, #59, #245, .T. ) ;
#24 = ORIENTED_EDGE ( 'NONE', *, *, #7, .T. ) ;
#25 = ADVANCED_FACE ( 'NONE', ( #246 ), #240, .F. ) ;
#26 = ORIENTED_EDGE ( 'NONE', *, *, #38, .F. ) ;
#27 = ORIENTED_EDGE ( 'NONE', *, *, #8, .F. ) ;
#28 = EDGE_CURVE ( 'NONE', #35, #29, #257, .T. ) ;
#29 = VERTEX_POINT ( 'NONE', #253 ) ;
#30 = EDGE_CURVE ( 'NONE', #20, #29, #251, .T. ) ;
#31 = ORIENTED_EDGE ( 'NONE', *, *, #30, .F. ) ;
#32 = ORIENTED_EDGE ( 'NONE', *, *, #28, .F. ) ;
#33 = ORIENTED_EDGE ( 'NONE', *, *, #60, .T. ) ;
#34 = VERTEX_POINT ( 'NONE', #252 ) ;
#35 = VERTEX_POINT ( 'NONE', #238 ) ;
#36 = CLOSED_SHELL ( 'NONE', ( #40, #64, #1, #11, #25 ) ) ;
#37 = EDGE_LOOP ( 'NONE', ( #12, #26 ) ) ;
#38 = EDGE_CURVE ( 'NONE', #35, #34, #236, .T. ) ;
#39 = ORIENTED_EDGE ( 'NONE', *, *, #23, .F. ) ;
#40 = ADVANCED_FACE ( 'NONE', ( #231 ), #129, .T. ) ;
#41 = DIRECTION ( 'NONE',  ( -1.000000000000000000, 1.224606353822377300E-016, 0.0000000000000000000 ) ) ;
#42 = EDGE_LOOP ( 'NONE', ( #17, #15, #31, #16, #58 ) ) ;
#43 = CARTESIAN_POINT ( 'NONE',  ( 0.0000000000000000000, 0.0000000000000000000, -3.919999999999996400 ) ) ;
#44 = DIRECTION ( 'NONE',  ( -1.224606353822377000E-016, -1.000000000000000000, 0.0000000000000000000 ) ) ;
#45 =( LENGTH_UNIT ( ) NAMED_UNIT ( * ) SI_UNIT ( .MILLI., .METRE. ) );
#46 = AXIS2_PLACEMENT_3D ( 'NONE', #53, #51, #47 ) ;
#47 = DIRECTION ( 'NONE',  ( 0.0000000000000000000, 0.0000000000000000000, -1.000000000000000000 ) ) ;
#48 =( NAMED_UNIT ( * ) PLANE_ANGLE_UNIT ( ) SI_UNIT ( $, .RADIAN. ) );
#49 = MANIFOLD_SOLID_BREP ( 'NONE', #36 ) ;
#50 =( GEOMETRIC_REPRESENTATION_CONTEXT ( 3 ) GLOBAL_UNCERTAINTY_ASSIGNED_CONTEXT ( ( #55 ) ) GLOBAL_UNIT_ASSIGNED_CONTEXT ( ( #45, #48, #52 ) ) REPRESENTATION_CONTEXT ( 'NONE', 'WORKASPACE' ) );
#51 = DIRECTION ( 'NONE',  ( 1.000000000000000000, 0.0000000000000000000, 0.0000000000000000000 ) ) ;
#52 =( NAMED_UNIT ( * ) SI_UNIT ( $, .STERADIAN. ) SOLID_ANGLE_UNIT ( ) );
#53 = CARTESIAN_POINT ( 'NONE',  ( 0.0000000000000000000, 0.0000000000000000000, -3.919999999999996400 ) ) ;
#54 = CIRCLE ( 'NONE', #46, 5.149999999999998600 ) ;
#55 = UNCERTAINTY_MEASURE_WITH_UNIT (LENGTH_MEASURE( 1.000000000000000100E-005 ), #45, 'distance_accuracy_value', 'NONE');
#56 = SHAPE_DEFINITION_REPRESENTATION ( #57, #149 ) ;
#57 = PRODUCT_DEFINITION_SHAPE ( 'NONE', 'NONE',  #193 ) ;
#58 = ORIENTED_EDGE ( 'NONE', *, *, #2, .F. ) ;
#59 = VERTEX_POINT ( 'NONE', #176 ) ;
#60 = EDGE_CURVE ( 'NONE', #59, #20, #174, .T. ) ;
#61 = ORIENTED_EDGE ( 'NONE', *, *, #8, .T. ) ;
#62 = ORIENTED_EDGE ( 'NONE', *, *, #30, .T. ) ;
#63 = EDGE_LOOP ( 'NONE', ( #62, #61, #5, #6 ) ) ;
#64 = ADVANCED_FACE ( 'NONE', ( #169 ), #188, .T. ) ;
#65 = UNCERTAINTY_MEASURE_WITH_UNIT (LENGTH_MEASURE( 1.000000000000000100E-005 ), #75, 'distance_accuracy_value', 'NONE');
#66 = CARTESIAN_POINT ( 'NONE',  ( 0.0000000000000000000, 3.153361361092620100E-016, 1.230000000000002000 ) ) ;
#67 = DIRECTION ( 'NONE',  ( -0.0000000000000000000, -0.0000000000000000000, 1.000000000000000000 ) ) ;
#68 = VECTOR ( 'NONE', #67, 1000.000000000000000 ) ;
#69 = CARTESIAN_POINT ( 'NONE',  ( 2.999999999999999100, 0.0000000000000000000, 4.308132045400366600 ) ) ;
#70 = SPHERICAL_SURFACE ( 'NONE', #89, 5.149999999999998600 ) ;
#71 =( NAMED_UNIT ( * ) SI_UNIT ( $, .STERADIAN. ) SOLID_ANGLE_UNIT ( ) );
#72 =( GEOMETRIC_REPRESENTATION_CONTEXT ( 3 ) GLOBAL_UNCERTAINTY_ASSIGNED_CONTEXT ( ( #65 ) ) GLOBAL_UNIT_ASSIGNED_CONTEXT ( ( #75, #85, #71 ) ) REPRESENTATION_CONTEXT ( 'NONE', 'WORKASPACE' ) );
#73 = COLOUR_RGB ( '',0.9568627450980391500, 0.9490196078431372100, 0.9607843137254902200 ) ;
#74 = STYLED_ITEM ( 'NONE', ( #90 ), #1 ) ;
#75 =( LENGTH_UNIT ( ) NAMED_UNIT ( * ) SI_UNIT ( .MILLI., .METRE. ) );
#76 = MECHANICAL_DESIGN_GEOMETRIC_PRESENTATION_REPRESENTATION (  '', ( #74 ), #72 ) ;
#77 = SURFACE_STYLE_FILL_AREA ( #80 ) ;
#78 = LINE ( 'NONE', #69, #68 ) ;
#79 = FACE_OUTER_BOUND ( 'NONE', #9, .T. ) ;
#80 = FILL_AREA_STYLE ('',( #83 ) ) ;
#81 = PRESENTATION_LAYER_ASSIGNMENT (  '', '', ( #74 ) ) ;
#82 = SURFACE_STYLE_USAGE ( .BOTH. , #84 ) ;
#83 = FILL_AREA_STYLE_COLOUR ( '', #73 ) ;
#84 = SURFACE_SIDE_STYLE ('',( #77 ) ) ;
#85 =( NAMED_UNIT ( * ) PLANE_ANGLE_UNIT ( ) SI_UNIT ( $, .RADIAN. ) );
#86 = DIRECTION ( 'NONE',  ( 0.0000000000000000000, 1.000000000000000000, 0.0000000000000000000 ) ) ;
#87 = DIRECTION ( 'NONE',  ( -1.000000000000000000, 0.0000000000000000000, 0.0000000000000000000 ) ) ;
#88 = CARTESIAN_POINT ( 'NONE',  ( 0.0000000000000000000, 0.0000000000000000000, -3.919999999999996400 ) ) ;
#89 = AXIS2_PLACEMENT_3D ( 'NONE', #88, #87, #86 ) ;
#90 = PRESENTATION_STYLE_ASSIGNMENT (( #82 ) ) ;
#91 = CIRCLE ( 'NONE', #92, 2.999999999999999100 ) ;
#92 = AXIS2_PLACEMENT_3D ( 'NONE', #101, #100, #93 ) ;
#93 = DIRECTION ( 'NONE',  ( 1.000000000000000000, 0.0000000000000000000, 0.0000000000000000000 ) ) ;
#94 = FACE_OUTER_BOUND ( 'NONE', #21, .T. ) ;
#95 = PRESENTATION_STYLE_ASSIGNMENT (( #96 ) ) ;
#96 = SURFACE_STYLE_USAGE ( .BOTH. , #97 ) ;
#97 = SURFACE_SIDE_STYLE ('',( #98 ) ) ;
#98 = SURFACE_STYLE_FILL_AREA ( #102 ) ;
#99 = CARTESIAN_POINT ( 'NONE',  ( -3.673819061467129300E-016, -2.999999999999998200, 0.2659885331902224200 ) ) ;
#100 = DIRECTION ( 'NONE',  ( -0.0000000000000000000, -0.0000000000000000000, 1.000000000000000000 ) ) ;
#101 = CARTESIAN_POINT ( 'NONE',  ( 0.0000000000000000000, 0.0000000000000000000, 0.2659885331902219800 ) ) ;
#102 = FILL_AREA_STYLE ('',( #103 ) ) ;
#103 = FILL_AREA_STYLE_COLOUR ( '', #104 ) ;
#104 = COLOUR_RGB ( '',0.9568627450980391500, 0.9490196078431372100, 0.9607843137254902200 ) ;
#105 = MECHANICAL_DESIGN_GEOMETRIC_PRESENTATION_REPRESENTATION (  '', ( #107 ), #50 ) ;
#106 = PRESENTATION_LAYER_ASSIGNMENT (  '', '', ( #107 ) ) ;
#107 = STYLED_ITEM ( 'NONE', ( #95 ), #11 ) ;
#108 = CYLINDRICAL_SURFACE ( 'NONE', #112, 2.999999999999999100 ) ;
#109 = DIRECTION ( 'NONE',  ( 1.000000000000000000, 0.0000000000000000000, 0.0000000000000000000 ) ) ;
#110 = CARTESIAN_POINT ( 'NONE',  ( 0.0000000000000000000, 0.0000000000000000000, 4.308132045400366600 ) ) ;
#111 = DIRECTION ( 'NONE',  ( -0.0000000000000000000, -0.0000000000000000000, 1.000000000000000000 ) ) ;
#112 = AXIS2_PLACEMENT_3D ( 'NONE', #110, #111, #109 ) ;
#113 = CIRCLE ( 'NONE', #114, 5.149999999999998600 ) ;
#114 = AXIS2_PLACEMENT_3D ( 'NONE', #43, #41, #44 ) ;
#115 = MECHANICAL_DESIGN_GEOMETRIC_PRESENTATION_REPRESENTATION (  '', ( #117 ), #177 ) ;
#116 = PRESENTATION_LAYER_ASSIGNMENT (  '', '', ( #117 ) ) ;
#117 = STYLED_ITEM ( 'NONE', ( #118 ), #49 ) ;
#118 = PRESENTATION_STYLE_ASSIGNMENT (( #119 ) ) ;
#119 = SURFACE_STYLE_USAGE ( .BOTH. , #120 ) ;
#120 = SURFACE_SIDE_STYLE ('',( #121 ) ) ;
#121 = SURFACE_STYLE_FILL_AREA ( #122 ) ;
#122 = FILL_AREA_STYLE ('',( #128 ) ) ;
#123 = DIRECTION ( 'NONE',  ( 1.000000000000000000, 0.0000000000000000000, 0.0000000000000000000 ) ) ;
#124 = DIRECTION ( 'NONE',  ( -0.0000000000000000000, -0.0000000000000000000, 1.000000000000000000 ) ) ;
#125 = CARTESIAN_POINT ( 'NONE',  ( 0.0000000000000000000, 0.0000000000000000000, 4.308132045400366600 ) ) ;
#126 = AXIS2_PLACEMENT_3D ( 'NONE', #125, #124, #123 ) ;
#127 = COLOUR_RGB ( '',0.7960784313725489700, 0.8235294117647058400, 0.9372549019607843100 ) ;
#128 = FILL_AREA_STYLE_COLOUR ( '', #127 ) ;
#129 = CYLINDRICAL_SURFACE ( 'NONE', #126, 2.999999999999999100 ) ;
#130 =( GEOMETRIC_REPRESENTATION_CONTEXT ( 3 ) GLOBAL_UNCERTAINTY_ASSIGNED_CONTEXT ( ( #131 ) ) GLOBAL_UNIT_ASSIGNED_CONTEXT ( ( #221, #220, #219 ) ) REPRESENTATION_CONTEXT ( 'NONE', 'WORKASPACE' ) );
#131 = UNCERTAINTY_MEASURE_WITH_UNIT (LENGTH_MEASURE( 1.000000000000000100E-005 ), #221, 'distance_accuracy_value', 'NONE');
#132 = DIRECTION ( 'NONE',  ( 1.000000000000000000, 0.0000000000000000000, 0.0000000000000000000 ) ) ;
#133 = DIRECTION ( 'NONE',  ( -0.0000000000000000000, -0.0000000000000000000, 1.000000000000000000 ) ) ;
#134 = CARTESIAN_POINT ( 'NONE',  ( 0.0000000000000000000, 0.0000000000000000000, -1.230000000000000200 ) ) ;
#135 = PRESENTATION_STYLE_ASSIGNMENT (( #136 ) ) ;
#136 = SURFACE_STYLE_USAGE ( .BOTH. , #137 ) ;
#137 = SURFACE_SIDE_STYLE ('',( #138 ) ) ;
#138 = SURFACE_STYLE_FILL_AREA ( #139 ) ;
#139 = FILL_AREA_STYLE ('',( #140 ) ) ;
#140 = FILL_AREA_STYLE_COLOUR ( '', #141 ) ;
#141 = COLOUR_RGB ( '',0.9568627450980391500, 0.9490196078431372100, 0.9607843137254902200 ) ;
#142 = CARTESIAN_POINT ( 'NONE',  ( 0.0000000000000000000, 2.999999999999998200, 0.2659885331902224200 ) ) ;
#143 = CIRCLE ( 'NONE', #148, 2.999999999999999100 ) ;
#144 =( LENGTH_UNIT ( ) NAMED_UNIT ( * ) SI_UNIT ( .MILLI., .METRE. ) );
#145 = MECHANICAL_DESIGN_GEOMETRIC_PRESENTATION_REPRESENTATION (  '', ( #147 ), #241 ) ;
#146 = PRESENTATION_LAYER_ASSIGNMENT (  '', '', ( #147 ) ) ;
#147 = STYLED_ITEM ( 'NONE', ( #135 ), #25 ) ;
#148 = AXIS2_PLACEMENT_3D ( 'NONE', #134, #133, #132 ) ;
#149 = ADVANCED_BREP_SHAPE_REPRESENTATION ( '4471-E0W', ( #49, #202 ), #150 ) ;
#150 =( GEOMETRIC_REPRESENTATION_CONTEXT ( 3 ) GLOBAL_UNCERTAINTY_ASSIGNED_CONTEXT ( ( #151 ) ) GLOBAL_UNIT_ASSIGNED_CONTEXT ( ( #154, #153, #152 ) ) REPRESENTATION_CONTEXT ( 'NONE', 'WORKASPACE' ) );
#151 = UNCERTAINTY_MEASURE_WITH_UNIT (LENGTH_MEASURE( 1.000000000000000100E-005 ), #154, 'distance_accuracy_value', 'NONE');
#152 =( NAMED_UNIT ( * ) SI_UNIT ( $, .STERADIAN. ) SOLID_ANGLE_UNIT ( ) );
#153 =( NAMED_UNIT ( * ) PLANE_ANGLE_UNIT ( ) SI_UNIT ( $, .RADIAN. ) );
#154 =( LENGTH_UNIT ( ) NAMED_UNIT ( * ) SI_UNIT ( .MILLI., .METRE. ) );
#155 = DIRECTION ( 'NONE',  ( 0.0000000000000000000, 1.000000000000000000, 0.0000000000000000000 ) ) ;
#156 = DIRECTION ( 'NONE',  ( -1.000000000000000000, 0.0000000000000000000, 0.0000000000000000000 ) ) ;
#157 =( NAMED_UNIT ( * ) SI_UNIT ( $, .STERADIAN. ) SOLID_ANGLE_UNIT ( ) );
#158 =( NAMED_UNIT ( * ) PLANE_ANGLE_UNIT ( ) SI_UNIT ( $, .RADIAN. ) );
#159 =( LENGTH_UNIT ( ) NAMED_UNIT ( * ) SI_UNIT ( .MILLI., .METRE. ) );
#160 = MECHANICAL_DESIGN_GEOMETRIC_PRESENTATION_REPRESENTATION (  '', ( #162 ), #189 ) ;
#161 = PRESENTATION_LAYER_ASSIGNMENT (  '', '', ( #162 ) ) ;
#162 = STYLED_ITEM ( 'NONE', ( #163 ), #64 ) ;
#163 = PRESENTATION_STYLE_ASSIGNMENT (( #164 ) ) ;
#164 = SURFACE_STYLE_USAGE ( .BOTH. , #165 ) ;
#165 = SURFACE_SIDE_STYLE ('',( #166 ) ) ;
#166 = SURFACE_STYLE_FILL_AREA ( #167 ) ;
#167 = FILL_AREA_STYLE ('',( #175 ) ) ;
#168 = COLOUR_RGB ( '',0.9568627450980391500, 0.9490196078431372100, 0.9607843137254902200 ) ;
#169 = FACE_OUTER_BOUND ( 'NONE', #63, .T. ) ;
#170 = DIRECTION ( 'NONE',  ( 1.000000000000000000, 0.0000000000000000000, 0.0000000000000000000 ) ) ;
#171 = DIRECTION ( 'NONE',  ( -0.0000000000000000000, -0.0000000000000000000, 1.000000000000000000 ) ) ;
#172 = CARTESIAN_POINT ( 'NONE',  ( 0.0000000000000000000, 0.0000000000000000000, 0.2659885331902219800 ) ) ;
#173 = AXIS2_PLACEMENT_3D ( 'NONE', #172, #171, #170 ) ;
#174 = CIRCLE ( 'NONE', #173, 2.999999999999999100 ) ;
#175 = FILL_AREA_STYLE_COLOUR ( '', #168 ) ;
#176 = CARTESIAN_POINT ( 'NONE',  ( 2.999999999999999100, 0.0000000000000000000, 0.2659885331902219800 ) ) ;
#177 =( GEOMETRIC_REPRESENTATION_CONTEXT ( 3 ) GLOBAL_UNCERTAINTY_ASSIGNED_CONTEXT ( ( #178 ) ) GLOBAL_UNIT_ASSIGNED_CONTEXT ( ( #181, #180, #179 ) ) REPRESENTATION_CONTEXT ( 'NONE', 'WORKASPACE' ) );
#178 = UNCERTAINTY_MEASURE_WITH_UNIT (LENGTH_MEASURE( 1.000000000000000100E-005 ), #181, 'distance_accuracy_value', 'NONE');
#179 =( NAMED_UNIT ( * ) SI_UNIT ( $, .STERADIAN. ) SOLID_ANGLE_UNIT ( ) );
#180 =( NAMED_UNIT ( * ) PLANE_ANGLE_UNIT ( ) SI_UNIT ( $, .RADIAN. ) );
#181 =( LENGTH_UNIT ( ) NAMED_UNIT ( * ) SI_UNIT ( .MILLI., .METRE. ) );
#182 = UNCERTAINTY_MEASURE_WITH_UNIT (LENGTH_MEASURE( 1.000000000000000100E-005 ), #144, 'distance_accuracy_value', 'NONE');
#183 =( NAMED_UNIT ( * ) SI_UNIT ( $, .STERADIAN. ) SOLID_ANGLE_UNIT ( ) );
#184 =( NAMED_UNIT ( * ) PLANE_ANGLE_UNIT ( ) SI_UNIT ( $, .RADIAN. ) );
#185 = CARTESIAN_POINT ( 'NONE',  ( 0.0000000000000000000, 0.0000000000000000000, -3.919999999999996400 ) ) ;
#186 = AXIS2_PLACEMENT_3D ( 'NONE', #185, #156, #155 ) ;
#187 = CARTESIAN_POINT ( 'NONE',  ( 0.0000000000000000000, 0.0000000000000000000, 0.0000000000000000000 ) ) ;
#188 = SPHERICAL_SURFACE ( 'NONE', #186, 5.149999999999998600 ) ;
#189 =( GEOMETRIC_REPRESENTATION_CONTEXT ( 3 ) GLOBAL_UNCERTAINTY_ASSIGNED_CONTEXT ( ( #190 ) ) GLOBAL_UNIT_ASSIGNED_CONTEXT ( ( #159, #158, #157 ) ) REPRESENTATION_CONTEXT ( 'NONE', 'WORKASPACE' ) );
#190 = UNCERTAINTY_MEASURE_WITH_UNIT (LENGTH_MEASURE( 1.000000000000000100E-005 ), #159, 'distance_accuracy_value', 'NONE');
#191 = PRODUCT_RELATED_PRODUCT_CATEGORY ( 'part', '', ( #197 ) ) ;
#192 = PRODUCT_DEFINITION_FORMATION_WITH_SPECIFIED_SOURCE ( 'ANY', '', #197, .NOT_KNOWN. ) ;
#193 = PRODUCT_DEFINITION ( 'UNKNOWN', '', #192, #194 ) ;
#194 = PRODUCT_DEFINITION_CONTEXT ( 'detailed design', #196, 'design' ) ;
#195 = APPLICATION_PROTOCOL_DEFINITION ( 'draft international standard', 'automotive_design', 1998, #196 ) ;
#196 = APPLICATION_CONTEXT ( 'automotive_design' ) ;
#197 = PRODUCT ( '4471-E0W', '4471-E0W', '', ( #198 ) ) ;
#198 = PRODUCT_CONTEXT ( 'NONE', #218, 'mechanical' ) ;
#199 = APPLICATION_PROTOCOL_DEFINITION ( 'draft international standard', 'automotive_design', 1998, #218 ) ;
#200 = DIRECTION ( 'NONE',  ( 0.0000000000000000000, 0.0000000000000000000, 1.000000000000000000 ) ) ;
#201 = DIRECTION ( 'NONE',  ( 1.000000000000000000, 0.0000000000000000000, 0.0000000000000000000 ) ) ;
#202 = AXIS2_PLACEMENT_3D ( 'NONE', #187, #200, #201 ) ;
#203 =( GEOMETRIC_REPRESENTATION_CONTEXT ( 3 ) GLOBAL_UNCERTAINTY_ASSIGNED_CONTEXT ( ( #204 ) ) GLOBAL_UNIT_ASSIGNED_CONTEXT ( ( #207, #206, #205 ) ) REPRESENTATION_CONTEXT ( 'NONE', 'WORKASPACE' ) );
#204 = UNCERTAINTY_MEASURE_WITH_UNIT (LENGTH_MEASURE( 1.000000000000000100E-005 ), #207, 'distance_accuracy_value', 'NONE');
#205 =( NAMED_UNIT ( * ) SI_UNIT ( $, .STERADIAN. ) SOLID_ANGLE_UNIT ( ) );
#206 =( NAMED_UNIT ( * ) PLANE_ANGLE_UNIT ( ) SI_UNIT ( $, .RADIAN. ) );
#207 =( LENGTH_UNIT ( ) NAMED_UNIT ( * ) SI_UNIT ( .MILLI., .METRE. ) );
#208 = MECHANICAL_DESIGN_GEOMETRIC_PRESENTATION_REPRESENTATION (  '', ( #210 ), #203 ) ;
#209 = PRESENTATION_LAYER_ASSIGNMENT (  '', '', ( #210 ) ) ;
#210 = STYLED_ITEM ( 'NONE', ( #211 ), #149 ) ;
#211 = PRESENTATION_STYLE_ASSIGNMENT (( #212 ) ) ;
#212 = SURFACE_STYLE_USAGE ( .BOTH. , #213 ) ;
#213 = SURFACE_SIDE_STYLE ('',( #214 ) ) ;
#214 = SURFACE_STYLE_FILL_AREA ( #215 ) ;
#215 = FILL_AREA_STYLE ('',( #216 ) ) ;
#216 = FILL_AREA_STYLE_COLOUR ( '', #217 ) ;
#217 = COLOUR_RGB ( '',0.7960784313725489700, 0.8235294117647058400, 0.9372549019607843100 ) ;
#218 = APPLICATION_CONTEXT ( 'automotive_design' ) ;
#219 =( NAMED_UNIT ( * ) SI_UNIT ( $, .STERADIAN. ) SOLID_ANGLE_UNIT ( ) );
#220 =( NAMED_UNIT ( * ) PLANE_ANGLE_UNIT ( ) SI_UNIT ( $, .RADIAN. ) );
#221 =( LENGTH_UNIT ( ) NAMED_UNIT ( * ) SI_UNIT ( .MILLI., .METRE. ) );
#222 = MECHANICAL_DESIGN_GEOMETRIC_PRESENTATION_REPRESENTATION (  '', ( #224 ), #130 ) ;
#223 = PRESENTATION_LAYER_ASSIGNMENT (  '', '', ( #224 ) ) ;
#224 = STYLED_ITEM ( 'NONE', ( #225 ), #40 ) ;
#225 = PRESENTATION_STYLE_ASSIGNMENT (( #226 ) ) ;
#226 = SURFACE_STYLE_USAGE ( .BOTH. , #227 ) ;
#227 = SURFACE_SIDE_STYLE ('',( #228 ) ) ;
#228 = SURFACE_STYLE_FILL_AREA ( #229 ) ;
#229 = FILL_AREA_STYLE ('',( #237 ) ) ;
#230 = COLOUR_RGB ( '',0.9568627450980391500, 0.9490196078431372100, 0.9607843137254902200 ) ;
#231 = FACE_OUTER_BOUND ( 'NONE', #42, .T. ) ;
#232 = DIRECTION ( 'NONE',  ( 1.000000000000000000, 0.0000000000000000000, 0.0000000000000000000 ) ) ;
#233 = DIRECTION ( 'NONE',  ( -0.0000000000000000000, -0.0000000000000000000, 1.000000000000000000 ) ) ;
#234 = CARTESIAN_POINT ( 'NONE',  ( 0.0000000000000000000, 0.0000000000000000000, -1.230000000000000200 ) ) ;
#235 = AXIS2_PLACEMENT_3D ( 'NONE', #234, #233, #232 ) ;
#236 = CIRCLE ( 'NONE', #235, 2.999999999999999100 ) ;
#237 = FILL_AREA_STYLE_COLOUR ( '', #230 ) ;
#238 = CARTESIAN_POINT ( 'NONE',  ( -2.999999999999999100, 3.673819061467130800E-016, -1.230000000000000200 ) ) ;
#239 = CARTESIAN_POINT ( 'NONE',  ( 0.0000000000000000000, 0.0000000000000000000, 0.2659885331902219800 ) ) ;
#240 = PLANE ( 'NONE',  #261 ) ;
#241 =( GEOMETRIC_REPRESENTATION_CONTEXT ( 3 ) GLOBAL_UNCERTAINTY_ASSIGNED_CONTEXT ( ( #182 ) ) GLOBAL_UNIT_ASSIGNED_CONTEXT ( ( #144, #184, #183 ) ) REPRESENTATION_CONTEXT ( 'NONE', 'WORKASPACE' ) );
#242 = DIRECTION ( 'NONE',  ( 1.000000000000000000, 0.0000000000000000000, 0.0000000000000000000 ) ) ;
#243 = DIRECTION ( 'NONE',  ( -0.0000000000000000000, -0.0000000000000000000, 1.000000000000000000 ) ) ;
#244 = AXIS2_PLACEMENT_3D ( 'NONE', #239, #243, #242 ) ;
#245 = CIRCLE ( 'NONE', #244, 2.999999999999999100 ) ;
#246 = FACE_OUTER_BOUND ( 'NONE', #37, .T. ) ;
#247 = DIRECTION ( 'NONE',  ( 1.000000000000000000, 0.0000000000000000000, 0.0000000000000000000 ) ) ;
#248 = DIRECTION ( 'NONE',  ( -0.0000000000000000000, -0.0000000000000000000, 1.000000000000000000 ) ) ;
#249 = CARTESIAN_POINT ( 'NONE',  ( 0.0000000000000000000, 0.0000000000000000000, 0.2659885331902219800 ) ) ;
#250 = AXIS2_PLACEMENT_3D ( 'NONE', #249, #248, #247 ) ;
#251 = CIRCLE ( 'NONE', #250, 2.999999999999999100 ) ;
#252 = CARTESIAN_POINT ( 'NONE',  ( 2.999999999999999100, 0.0000000000000000000, -1.230000000000000200 ) ) ;
#253 = CARTESIAN_POINT ( 'NONE',  ( -2.999999999999999100, 3.673819061467130800E-016, 0.2659885331902219800 ) ) ;
#254 = DIRECTION ( 'NONE',  ( -0.0000000000000000000, -0.0000000000000000000, 1.000000000000000000 ) ) ;
#255 = VECTOR ( 'NONE', #254, 1000.000000000000000 ) ;
#256 = CARTESIAN_POINT ( 'NONE',  ( -2.999999999999999100, 3.673819061467130800E-016, 4.308132045400366600 ) ) ;
#257 = LINE ( 'NONE', #256, #255 ) ;
#258 = DIRECTION ( 'NONE',  ( 1.000000000000000000, 0.0000000000000000000, 0.0000000000000000000 ) ) ;
#259 = DIRECTION ( 'NONE',  ( 0.0000000000000000000, -0.0000000000000000000, 1.000000000000000000 ) ) ;
#260 = CARTESIAN_POINT ( 'NONE',  ( 0.0000000000000000000, 4.518946688853733400E-016, -1.230000000000000000 ) ) ;
#261 = AXIS2_PLACEMENT_3D ( 'NONE', #260, #259, #258 ) ;
ENDSEC;
END-ISO-10303-21;
