ISO-10303-21;
HEADER;
FILE_DESCRIPTION (( 'STEP AP203' ),
    '1' );
FILE_NAME ('step_35949.step',
    '2017-05-22T20:26:31',
    ( '' ),
    ( '' ),
    'SwSTEP 2.0',
    'SolidWorks 2016',
    '' );
FILE_SCHEMA (( 'CONFIG_CONTROL_DESIGN' ));
ENDSEC;

DATA;
#1 = PERSON_AND_ORGANIZATION_ROLE ( 'creator' ) ;
#2 = APPLICATION_CONTEXT ( 'configuration controlled 3d designs of mechanical parts and assemblies' ) ;
#3 = APPLICATION_PROTOCOL_DEFINITION ( 'international standard', 'config_control_design', 1994, #2 ) ;
#4 = PERSON_AND_ORGANIZATION_ROLE ( 'design_owner' ) ;
#5 = CARTESIAN_POINT ( 'NONE',  ( 6.250000000000000000, 7.654042494670957600E-016, 1.000000000000000000 ) ) ;
#6 = SECURITY_CLASSIFICATION_LEVEL ( 'unclassified' ) ;
#7 = DIRECTION ( 'NONE',  ( 0.0000000000000000000, 0.0000000000000000000, 1.000000000000000000 ) ) ;
#8 = APPROVAL_STATUS ( 'not_yet_approved' ) ;
#9 = DIRECTION ( 'NONE',  ( 0.0000000000000000000, 0.0000000000000000000, 1.000000000000000000 ) ) ;
#10 = EDGE_LOOP ( 'NONE', ( #144, #122 ) ) ;
#11 = APPROVAL_ROLE ( '' ) ;
#12 = CARTESIAN_POINT ( 'NONE',  ( 0.0000000000000000000, 0.0000000000000000000, 1.000000000000000000 ) ) ;
#13 = PRODUCT_RELATED_PRODUCT_CATEGORY ( 'detail', '', ( #47 ) ) ;
#14 = DATE_TIME_ROLE ( 'classification_date' ) ;
#15 = CC_DESIGN_SECURITY_CLASSIFICATION ( #40, ( #113 ) ) ;
#16 = APPLICATION_PROTOCOL_DEFINITION ( 'international standard', 'config_control_design', 1994, #164 ) ;
#17 = ORIENTED_EDGE ( 'NONE', *, *, #43, .F. ) ;
#18 = DIRECTION ( 'NONE',  ( -0.0000000000000000000, -0.0000000000000000000, -1.000000000000000000 ) ) ;
#19 = CARTESIAN_POINT ( 'NONE',  ( 0.0000000000000000000, 0.0000000000000000000, 1.000000000000000000 ) ) ;
#20 = CC_DESIGN_APPROVAL ( #23, ( #40 ) ) ;
#21 = PERSON_AND_ORGANIZATION_ROLE ( 'creator' ) ;
#22 = DIRECTION ( 'NONE',  ( 1.000000000000000000, 0.0000000000000000000, 0.0000000000000000000 ) ) ;
#23 = APPROVAL ( #8, 'UNSPECIFIED' ) ;
#24 = PERSON_AND_ORGANIZATION_ROLE ( 'design_supplier' ) ;
#25 = DIRECTION ( 'NONE',  ( 1.000000000000000000, 0.0000000000000000000, 0.0000000000000000000 ) ) ;
#26 = CC_DESIGN_DATE_AND_TIME_ASSIGNMENT ( #152, #14, ( #40 ) ) ;
#27 = DIRECTION ( 'NONE',  ( 0.0000000000000000000, 0.0000000000000000000, 1.000000000000000000 ) ) ;
#28 = CARTESIAN_POINT ( 'NONE',  ( 0.0000000000000000000, 0.0000000000000000000, 1.000000000000000000 ) ) ;
#29 = ADVANCED_FACE ( 'NONE', ( #139 ), #76, .F. ) ;
#30 = DIRECTION ( 'NONE',  ( 1.000000000000000000, 0.0000000000000000000, 0.0000000000000000000 ) ) ;
#31 = APPROVAL_ROLE ( '' ) ;
#32 = PERSON ( 'UNSPECIFIED', 'UNSPECIFIED', 'UNSPECIFIED', ('UNSPECIFIED'), ('UNSPECIFIED'), ('UNSPECIFIED') ) ;
#33 = ADVANCED_FACE ( 'NONE', ( #145 ), #148, .T. ) ;
#34 = DIRECTION ( 'NONE',  ( 1.000000000000000000, 0.0000000000000000000, 0.0000000000000000000 ) ) ;
#35 = ADVANCED_FACE ( 'NONE', ( #104 ), #129, .T. ) ;
#36 = DATE_TIME_ROLE ( 'creation_date' ) ;
#37 = ADVANCED_FACE ( 'NONE', ( #128 ), #46, .T. ) ;
#38 = CC_DESIGN_PERSON_AND_ORGANIZATION_ASSIGNMENT ( #87, #115, ( #40 ) ) ;
#39 = CARTESIAN_POINT ( 'NONE',  ( 0.0000000000000000000, 0.0000000000000000000, 0.0000000000000000000 ) ) ;
#40 = SECURITY_CLASSIFICATION ( '', '', #6 ) ;
#41 = DIRECTION ( 'NONE',  ( 0.0000000000000000000, 0.0000000000000000000, 1.000000000000000000 ) ) ;
#42 = VERTEX_POINT ( 'NONE', #5 ) ;
#43 = EDGE_CURVE ( 'NONE', #42, #110, #135, .T. ) ;
#44 = CC_DESIGN_PERSON_AND_ORGANIZATION_ASSIGNMENT ( #132, #4, ( #47 ) ) ;
#45 = APPROVAL_ROLE ( '' ) ;
#46 = CYLINDRICAL_SURFACE ( 'NONE', #81, 6.250000000000000000 ) ;
#47 = PRODUCT ( 'step_35949', 'step_35949', '', ( #161 ) ) ;
#48 = DATE_AND_TIME ( #73, #64 ) ;
#49 = CC_DESIGN_PERSON_AND_ORGANIZATION_ASSIGNMENT ( #82, #24, ( #113 ) ) ;
#50 = ORIENTED_EDGE ( 'NONE', *, *, #105, .F. ) ;
#51 = PERSON_AND_ORGANIZATION ( #32, #108 ) ;
#52 = AXIS2_PLACEMENT_3D ( 'NONE', #80, #27, #25 ) ;
#53 = DIRECTION ( 'NONE',  ( 1.000000000000000000, 0.0000000000000000000, -0.0000000000000000000 ) ) ;
#54 = DIRECTION ( 'NONE',  ( -1.000000000000000000, 0.0000000000000000000, 0.0000000000000000000 ) ) ;
#55 = APPROVAL_STATUS ( 'not_yet_approved' ) ;
#56 = CC_DESIGN_PERSON_AND_ORGANIZATION_ASSIGNMENT ( #51, #1, ( #113 ) ) ;
#57 = LOCAL_TIME ( 13, 26, 31.00000000000000000, #89 ) ;
#58 = VECTOR ( 'NONE', #119, 1000.000000000000000 ) ;
#59 = SHAPE_DEFINITION_REPRESENTATION ( #120, #166 ) ;
#60 = DATE_AND_TIME ( #71, #68 ) ;
#61 = CC_DESIGN_APPROVAL ( #124, ( #113 ) ) ;
#62 = DATE_AND_TIME ( #85, #57 ) ;
#63 = CC_DESIGN_PERSON_AND_ORGANIZATION_ASSIGNMENT ( #162, #21, ( #111 ) ) ;
#64 = LOCAL_TIME ( 13, 26, 31.00000000000000000, #112 ) ;
#65 = ORIENTED_EDGE ( 'NONE', *, *, #154, .T. ) ;
#66 = APPROVAL_DATE_TIME ( #62, #124 ) ;
#67 = AXIS2_PLACEMENT_3D ( 'NONE', #116, #7, #30 ) ;
#68 = LOCAL_TIME ( 13, 26, 31.00000000000000000, #93 ) ;
#69 = ORIENTED_EDGE ( 'NONE', *, *, #134, .T. ) ;
#70 =( NAMED_UNIT ( * ) SI_UNIT ( $, .STERADIAN. ) SOLID_ANGLE_UNIT ( ) );
#71 = CALENDAR_DATE ( 2017, 22, 5 ) ;
#72 = CARTESIAN_POINT ( 'NONE',  ( -6.250000000000000000, 0.0000000000000000000, 1.000000000000000000 ) ) ;
#73 = CALENDAR_DATE ( 2017, 22, 5 ) ;
#74 = EDGE_CURVE ( 'NONE', #150, #143, #172, .T. ) ;
#75 = LOCAL_TIME ( 13, 26, 31.00000000000000000, #169 ) ;
#76 = PLANE ( 'NONE',  #175 ) ;
#77 = APPROVAL_PERSON_ORGANIZATION ( #103, #124, #45 ) ;
#78 = CALENDAR_DATE ( 2017, 22, 5 ) ;
#79 = DIRECTION ( 'NONE',  ( 0.0000000000000000000, 0.0000000000000000000, 1.000000000000000000 ) ) ;
#80 = CARTESIAN_POINT ( 'NONE',  ( 0.0000000000000000000, 0.0000000000000000000, 1.000000000000000000 ) ) ;
#81 = AXIS2_PLACEMENT_3D ( 'NONE', #19, #18, #54 ) ;
#82 = PERSON_AND_ORGANIZATION ( #32, #108 ) ;
#83 = CC_DESIGN_APPROVAL ( #147, ( #111 ) ) ;
#84 = APPROVAL_PERSON_ORGANIZATION ( #106, #23, #31 ) ;
#85 = CALENDAR_DATE ( 2017, 22, 5 ) ;
#86 = PERSON_AND_ORGANIZATION ( #32, #108 ) ;
#87 = PERSON_AND_ORGANIZATION ( #32, #108 ) ;
#88 = DIRECTION ( 'NONE',  ( -0.0000000000000000000, -0.0000000000000000000, -1.000000000000000000 ) ) ;
#89 = COORDINATED_UNIVERSAL_TIME_OFFSET ( 7, 0, .BEHIND. ) ;
#90 = DIRECTION ( 'NONE',  ( -0.0000000000000000000, -0.0000000000000000000, -1.000000000000000000 ) ) ;
#91 = APPROVAL_PERSON_ORGANIZATION ( #86, #147, #11 ) ;
#92 = CARTESIAN_POINT ( 'NONE',  ( 6.250000000000000000, 7.654042494670957600E-016, 0.0000000000000000000 ) ) ;
#93 = COORDINATED_UNIVERSAL_TIME_OFFSET ( 7, 0, .BEHIND. ) ;
#94 =( LENGTH_UNIT ( ) NAMED_UNIT ( * ) SI_UNIT ( .MILLI., .METRE. ) );
#95 = COORDINATED_UNIVERSAL_TIME_OFFSET ( 7, 0, .BEHIND. ) ;
#96 = VECTOR ( 'NONE', #88, 1000.000000000000000 ) ;
#97 = CARTESIAN_POINT ( 'NONE',  ( 0.0000000000000000000, 0.0000000000000000000, 1.000000000000000000 ) ) ;
#98 = DATE_AND_TIME ( #101, #100 ) ;
#99 = DIRECTION ( 'NONE',  ( -1.000000000000000000, 0.0000000000000000000, 0.0000000000000000000 ) ) ;
#100 = LOCAL_TIME ( 13, 26, 31.00000000000000000, #95 ) ;
#101 = CALENDAR_DATE ( 2017, 22, 5 ) ;
#102 = APPROVAL_DATE_TIME ( #98, #147 ) ;
#103 = PERSON_AND_ORGANIZATION ( #32, #108 ) ;
#104 = FACE_OUTER_BOUND ( 'NONE', #133, .T. ) ;
#105 = EDGE_CURVE ( 'NONE', #42, #150, #138, .T. ) ;
#106 = PERSON_AND_ORGANIZATION ( #32, #108 ) ;
#107 = APPROVAL_STATUS ( 'not_yet_approved' ) ;
#108 = ORGANIZATION ( 'UNSPECIFIED', 'UNSPECIFIED', '' ) ;
#109 = MANIFOLD_SOLID_BREP ( 'Boss-Extrude1', #137 ) ;
#110 = VERTEX_POINT ( 'NONE', #92 ) ;
#111 = PRODUCT_DEFINITION ( 'UNKNOWN', '', #113, #131 ) ;
#112 = COORDINATED_UNIVERSAL_TIME_OFFSET ( 7, 0, .BEHIND. ) ;
#113 = PRODUCT_DEFINITION_FORMATION_WITH_SPECIFIED_SOURCE ( 'ANY', '', #47, .NOT_KNOWN. ) ;
#114 = UNCERTAINTY_MEASURE_WITH_UNIT (LENGTH_MEASURE( 1.000000000000000100E-005 ), #94, 'distance_accuracy_value', 'NONE');
#115 = PERSON_AND_ORGANIZATION_ROLE ( 'classification_officer' ) ;
#116 = CARTESIAN_POINT ( 'NONE',  ( 0.0000000000000000000, 0.0000000000000000000, 0.0000000000000000000 ) ) ;
#117 = CC_DESIGN_DATE_AND_TIME_ASSIGNMENT ( #60, #36, ( #111 ) ) ;
#118 =( NAMED_UNIT ( * ) PLANE_ANGLE_UNIT ( ) SI_UNIT ( $, .RADIAN. ) );
#119 = DIRECTION ( 'NONE',  ( -0.0000000000000000000, -0.0000000000000000000, -1.000000000000000000 ) ) ;
#120 = PRODUCT_DEFINITION_SHAPE ( 'NONE', 'NONE',  #111 ) ;
#121 = AXIS2_PLACEMENT_3D ( 'NONE', #28, #41, #141 ) ;
#122 = ORIENTED_EDGE ( 'NONE', *, *, #154, .F. ) ;
#123 = ORIENTED_EDGE ( 'NONE', *, *, #74, .F. ) ;
#124 = APPROVAL ( #55, 'UNSPECIFIED' ) ;
#125 = EDGE_LOOP ( 'NONE', ( #69, #149 ) ) ;
#126 = DIRECTION ( 'NONE',  ( 0.0000000000000000000, 0.0000000000000000000, 1.000000000000000000 ) ) ;
#127 = AXIS2_PLACEMENT_3D ( 'NONE', #12, #90, #99 ) ;
#128 = FACE_OUTER_BOUND ( 'NONE', #157, .T. ) ;
#129 = CYLINDRICAL_SURFACE ( 'NONE', #127, 6.250000000000000000 ) ;
#130 = AXIS2_PLACEMENT_3D ( 'NONE', #97, #136, #53 ) ;
#131 = DESIGN_CONTEXT ( 'detailed design', #2, 'design' ) ;
#132 = PERSON_AND_ORGANIZATION ( #32, #108 ) ;
#133 = EDGE_LOOP ( 'NONE', ( #17, #173, #146, #151 ) ) ;
#134 = EDGE_CURVE ( 'NONE', #150, #42, #160, .T. ) ;
#135 = LINE ( 'NONE', #171, #58 ) ;
#136 = DIRECTION ( 'NONE',  ( 0.0000000000000000000, 0.0000000000000000000, 1.000000000000000000 ) ) ;
#137 = CLOSED_SHELL ( 'NONE', ( #37, #35, #33, #29 ) ) ;
#138 = CIRCLE ( 'NONE', #52, 6.250000000000000000 ) ;
#139 = FACE_OUTER_BOUND ( 'NONE', #10, .T. ) ;
#140 = APPROVAL_DATE_TIME ( #48, #23 ) ;
#141 = DIRECTION ( 'NONE',  ( 1.000000000000000000, 0.0000000000000000000, 0.0000000000000000000 ) ) ;
#142 = CARTESIAN_POINT ( 'NONE',  ( -6.250000000000000000, 0.0000000000000000000, 1.000000000000000000 ) ) ;
#143 = VERTEX_POINT ( 'NONE', #155 ) ;
#144 = ORIENTED_EDGE ( 'NONE', *, *, #167, .F. ) ;
#145 = FACE_OUTER_BOUND ( 'NONE', #125, .T. ) ;
#146 = ORIENTED_EDGE ( 'NONE', *, *, #74, .T. ) ;
#147 = APPROVAL ( #107, 'UNSPECIFIED' ) ;
#148 = PLANE ( 'NONE',  #130 ) ;
#149 = ORIENTED_EDGE ( 'NONE', *, *, #105, .T. ) ;
#150 = VERTEX_POINT ( 'NONE', #72 ) ;
#151 = ORIENTED_EDGE ( 'NONE', *, *, #167, .T. ) ;
#152 = DATE_AND_TIME ( #78, #75 ) ;
#153 = ORIENTED_EDGE ( 'NONE', *, *, #43, .T. ) ;
#154 = EDGE_CURVE ( 'NONE', #110, #143, #156, .T. ) ;
#155 = CARTESIAN_POINT ( 'NONE',  ( -6.250000000000000000, 0.0000000000000000000, 0.0000000000000000000 ) ) ;
#156 = CIRCLE ( 'NONE', #163, 6.250000000000000000 ) ;
#157 = EDGE_LOOP ( 'NONE', ( #50, #153, #65, #123 ) ) ;
#158 = CIRCLE ( 'NONE', #67, 6.250000000000000000 ) ;
#159 = CARTESIAN_POINT ( 'NONE',  ( 0.0000000000000000000, 0.0000000000000000000, 0.0000000000000000000 ) ) ;
#160 = CIRCLE ( 'NONE', #121, 6.250000000000000000 ) ;
#161 = MECHANICAL_CONTEXT ( 'NONE', #164, 'mechanical' ) ;
#162 = PERSON_AND_ORGANIZATION ( #32, #108 ) ;
#163 = AXIS2_PLACEMENT_3D ( 'NONE', #39, #126, #34 ) ;
#164 = APPLICATION_CONTEXT ( 'configuration controlled 3d designs of mechanical parts and assemblies' ) ;
#165 = DIRECTION ( 'NONE',  ( 1.000000000000000000, 0.0000000000000000000, -0.0000000000000000000 ) ) ;
#166 = ADVANCED_BREP_SHAPE_REPRESENTATION ( 'step_35949', ( #109, #168 ), #170 ) ;
#167 = EDGE_CURVE ( 'NONE', #143, #110, #158, .T. ) ;
#168 = AXIS2_PLACEMENT_3D ( 'NONE', #159, #79, #22 ) ;
#169 = COORDINATED_UNIVERSAL_TIME_OFFSET ( 7, 0, .BEHIND. ) ;
#170 =( GEOMETRIC_REPRESENTATION_CONTEXT ( 3 ) GLOBAL_UNCERTAINTY_ASSIGNED_CONTEXT ( ( #114 ) ) GLOBAL_UNIT_ASSIGNED_CONTEXT ( ( #94, #118, #70 ) ) REPRESENTATION_CONTEXT ( 'NONE', 'WORKASPACE' ) );
#171 = CARTESIAN_POINT ( 'NONE',  ( 6.250000000000000000, 7.654042494670957600E-016, 1.000000000000000000 ) ) ;
#172 = LINE ( 'NONE', #142, #96 ) ;
#173 = ORIENTED_EDGE ( 'NONE', *, *, #134, .F. ) ;
#174 = CARTESIAN_POINT ( 'NONE',  ( 0.0000000000000000000, 0.0000000000000000000, 0.0000000000000000000 ) ) ;
#175 = AXIS2_PLACEMENT_3D ( 'NONE', #174, #9, #165 ) ;
ENDSEC;
END-ISO-10303-21;
