ISO-10303-21;
HEADER;
FILE_DESCRIPTION (( 'STEP AP214' ),
    '1' );
FILE_NAME ('20094.step',
    '2022-07-08T19:02:39',
    ( '' ),
    ( '' ),
    'SwSTEP 2.0',
    'SolidWorks 2021',
    '' );
FILE_SCHEMA (( 'AUTOMOTIVE_DESIGN' ));
ENDSEC;

DATA;
#1 = ORIENTED_EDGE ( 'NONE', *, *, #142, .F. ) ;
#2 = DIRECTION ( 'NONE',  ( -0.7071067811865415775, 1.570092458683779358E-16, -0.7071067811865535679 ) ) ;
#3 = AXIS2_PLACEMENT_3D ( 'NONE', #87, #18, #126 ) ;
#4 = PLANE ( 'NONE',  #119 ) ;
#5 = CARTESIAN_POINT ( 'NONE',  ( 7.071067811865587416, -1.734723475976807094E-15, -7.071067811865502151 ) ) ;
#6 = UNCERTAINTY_MEASURE_WITH_UNIT (LENGTH_MEASURE( 1.000000000000000082E-05 ), #140, 'distance_accuracy_value', 'NONE');
#7 = FILL_AREA_STYLE ('',( #236 ) ) ;
#8 = PRODUCT ( '47121', '47121', '', ( #141 ) ) ;
#9 = AXIS2_PLACEMENT_3D ( 'NONE', #116, #37, #213 ) ;
#10 = DIRECTION ( 'NONE',  ( 1.000000000000000000, 0.000000000000000000, 0.000000000000000000 ) ) ;
#11 = CARTESIAN_POINT ( 'NONE',  ( 0.000000000000000000, 0.000000000000000000, 0.000000000000000000 ) ) ;
#12 = DIRECTION ( 'NONE',  ( 1.000000000000000000, -9.000135878565353990E-17, 6.224578317002600690E-17 ) ) ;
#13 = ORIENTED_EDGE ( 'NONE', *, *, #147, .F. ) ;
#14 = PRODUCT_DEFINITION ( 'UNKNOWN', '', #33, #36 ) ;
#15 =( GEOMETRIC_REPRESENTATION_CONTEXT ( 3 ) GLOBAL_UNCERTAINTY_ASSIGNED_CONTEXT ( ( #128 ) ) GLOBAL_UNIT_ASSIGNED_CONTEXT ( ( #220, #205, #181 ) ) REPRESENTATION_CONTEXT ( 'NONE', 'WORKASPACE' ) );
#16 = CARTESIAN_POINT ( 'NONE',  ( 0.000000000000000000, 10.00000000000002665, 0.000000000000000000 ) ) ;
#17 = LINE ( 'NONE', #230, #193 ) ;
#18 = DIRECTION ( 'NONE',  ( 0.000000000000000000, 0.000000000000000000, 1.000000000000000000 ) ) ;
#19 = CARTESIAN_POINT ( 'NONE',  ( 7.071067811865583863, 10.00000000000001599, -7.071067811865502151 ) ) ;
#20 = LINE ( 'NONE', #241, #117 ) ;
#21 = DIRECTION ( 'NONE',  ( 0.7071067811865415775, -1.570092458683779358E-16, 0.7071067811865535679 ) ) ;
#22 = VECTOR ( 'NONE', #86, 1000.000000000000000 ) ;
#23 = CARTESIAN_POINT ( 'NONE',  ( 14.14213562373101496, 10.00000000000001599, 3.642919299551294898E-14 ) ) ;
#24 = LINE ( 'NONE', #172, #81 ) ;
#25 = EDGE_CURVE ( 'NONE', #30, #144, #53, .T. ) ;
#26 = CARTESIAN_POINT ( 'NONE',  ( -4.510281037539698445E-14, -10.00000000000002132, -10.00000000000012967 ) ) ;
#27 =( NAMED_UNIT ( * ) PLANE_ANGLE_UNIT ( ) SI_UNIT ( $, .RADIAN. ) );
#28 =( NAMED_UNIT ( * ) PLANE_ANGLE_UNIT ( ) SI_UNIT ( $, .RADIAN. ) );
#29 = ITEM_DEFINED_TRANSFORMATION ( 'NONE', 'NONE', #132,  #32 ) ;
#30 = VERTEX_POINT ( 'NONE', #16 ) ;
#31 = DIRECTION ( 'NONE',  ( 1.000000000000000000, 0.000000000000000000, 0.000000000000000000 ) ) ;
#32 = AXIS2_PLACEMENT_3D ( 'NONE', #11, #64, #42 ) ;
#33 = PRODUCT_DEFINITION_FORMATION_WITH_SPECIFIED_SOURCE ( 'ANY', '', #8, .NOT_KNOWN. ) ;
#34 = EDGE_LOOP ( 'NONE', ( #47, #146, #180 ) ) ;
#35 = EDGE_LOOP ( 'NONE', ( #209, #187, #96 ) ) ;
#36 = PRODUCT_DEFINITION_CONTEXT ( 'detailed design', #54, 'design' ) ;
#37 = DIRECTION ( 'NONE',  ( 0.7071067811865433539, -1.570092458683783548E-16, 0.7071067811865516806 ) ) ;
#38 = FILL_AREA_STYLE_COLOUR ( '', #226 ) ;
#39 = DIRECTION ( 'NONE',  ( 2.220446049250329844E-16, -1.000000000000000000, -7.979725449430345949E-31 ) ) ;
#40 = MECHANICAL_DESIGN_GEOMETRIC_PRESENTATION_REPRESENTATION (  '', ( #61 ), #238 ) ;
#41 = DIRECTION ( 'NONE',  ( 2.220446049250329844E-16, -1.000000000000000000, 7.979725449430331936E-31 ) ) ;
#42 = DIRECTION ( 'NONE',  ( 1.000000000000000000, 0.000000000000000000, 0.000000000000000000 ) ) ;
#43 = ADVANCED_BREP_SHAPE_REPRESENTATION ( '', ( #198, #32 ), #138 ) ;
#44 = DIRECTION ( 'NONE',  ( -0.7071067811865406894, -5.523219364259391705E-16, 0.7071067811865544561 ) ) ;
#45 = DIRECTION ( 'NONE',  ( 1.232595164407830946E-32, 7.979725449430345949E-31, -1.000000000000000000 ) ) ;
#46 = CONTEXT_DEPENDENT_SHAPE_REPRESENTATION ( #229, #85 ) ;
#47 = ORIENTED_EDGE ( 'NONE', *, *, #65, .F. ) ;
#48 = DIRECTION ( 'NONE',  ( 0.000000000000000000, 0.000000000000000000, 1.000000000000000000 ) ) ;
#49 = ORIENTED_EDGE ( 'NONE', *, *, #25, .F. ) ;
#50 = AXIS2_PLACEMENT_3D ( 'NONE', #173, #152, #21 ) ;
#51 = AXIS2_PLACEMENT_3D ( 'NONE', #215, #103, #196 ) ;
#52 = ORIENTED_EDGE ( 'NONE', *, *, #194, .T. ) ;
#53 = LINE ( 'NONE', #107, #222 ) ;
#54 = APPLICATION_CONTEXT ( 'automotive_design' ) ;
#55 = PRODUCT_RELATED_PRODUCT_CATEGORY ( 'part', '', ( #105 ) ) ;
#56 = FACE_OUTER_BOUND ( 'NONE', #35, .T. ) ;
#57 = SURFACE_SIDE_STYLE ('',( #98 ) ) ;
#58 = FILL_AREA_STYLE ('',( #38 ) ) ;
#59 = APPLICATION_CONTEXT ( 'automotive_design' ) ;
#60 = PRODUCT_DEFINITION_CONTEXT ( 'detailed design', #202, 'design' ) ;
#61 = STYLED_ITEM ( 'NONE', ( #192 ), #198 ) ;
#62 = AXIS2_PLACEMENT_3D ( 'NONE', #175, #80, #10 ) ;
#63 =( NAMED_UNIT ( * ) SI_UNIT ( $, .STERADIAN. ) SOLID_ANGLE_UNIT ( ) );
#64 = DIRECTION ( 'NONE',  ( 0.000000000000000000, 0.000000000000000000, 1.000000000000000000 ) ) ;
#65 = EDGE_CURVE ( 'NONE', #144, #67, #20, .T. ) ;
#66 = SURFACE_STYLE_FILL_AREA ( #7 ) ;
#67 = VERTEX_POINT ( 'NONE', #186 ) ;
#68 = ITEM_DEFINED_TRANSFORMATION ( 'NONE', 'NONE', #82,  #62 ) ;
#69 = CARTESIAN_POINT ( 'NONE',  ( 14.14213562373101496, 10.00000000000001599, 3.642919299551294898E-14 ) ) ;
#70 = AXIS2_PLACEMENT_3D ( 'NONE', #127, #39, #75 ) ;
#71 = VERTEX_POINT ( 'NONE', #206 ) ;
#72 = EDGE_LOOP ( 'NONE', ( #109, #49, #143, #52 ) ) ;
#73 = EDGE_CURVE ( 'NONE', #166, #30, #185, .T. ) ;
#74 = PLANE ( 'NONE',  #214 ) ;
#75 = DIRECTION ( 'NONE',  ( 1.232595164407830946E-32, 7.979725449430345949E-31, -1.000000000000000000 ) ) ;
#76 = PRODUCT_RELATED_PRODUCT_CATEGORY ( 'part', '', ( #122 ) ) ;
#77 = DIRECTION ( 'NONE',  ( 2.576236144148255968E-15, 2.259332081220447118E-31, -1.000000000000000000 ) ) ;
#78 = SURFACE_STYLE_USAGE ( .BOTH. , #57 ) ;
#79 =( REPRESENTATION_RELATIONSHIP ('NONE','NONE', #157, #174 ) REPRESENTATION_RELATIONSHIP_WITH_TRANSFORMATION ( #29 )SHAPE_REPRESENTATION_RELATIONSHIP( ) );
#80 = DIRECTION ( 'NONE',  ( 0.000000000000000000, 0.000000000000000000, 1.000000000000000000 ) ) ;
#81 = VECTOR ( 'NONE', #41, 1000.000000000000000 ) ;
#82 = AXIS2_PLACEMENT_3D ( 'NONE', #161, #12, #242 ) ;
#83 =( NAMED_UNIT ( * ) SI_UNIT ( $, .STERADIAN. ) SOLID_ANGLE_UNIT ( ) );
#84 = APPLICATION_PROTOCOL_DEFINITION ( 'draft international standard', 'automotive_design', 1998, #59 ) ;
#85 = PRODUCT_DEFINITION_SHAPE ( 'NONE', 'NONE',  #244 ) ;
#86 = DIRECTION ( 'NONE',  ( -0.7071067811865517916, 1.570092458683790944E-16, 0.7071067811865433539 ) ) ;
#87 = CARTESIAN_POINT ( 'NONE',  ( 0.000000000000000000, 0.000000000000000000, 0.000000000000000000 ) ) ;
#88 = DIRECTION ( 'NONE',  ( 1.000000000000000000, -2.220446049250329351E-16, 2.576236144148255968E-15 ) ) ;
#89 = DIRECTION ( 'NONE',  ( 2.220446049250329844E-16, -1.000000000000000000, -7.979725449430345949E-31 ) ) ;
#90 = PRODUCT_DEFINITION_SHAPE ( 'NONE', 'NONE',  #123 ) ;
#91 = APPLICATION_CONTEXT ( 'automotive_design' ) ;
#92 = LINE ( 'NONE', #19, #110 ) ;
#93 = SHAPE_DEFINITION_REPRESENTATION ( #125, #157 ) ;
#94 = DIRECTION ( 'NONE',  ( 1.000000000000000000, -2.220446049250329351E-16, 2.576236144148255968E-15 ) ) ;
#95 = PRODUCT_DEFINITION_CONTEXT ( 'detailed design', #197, 'design' ) ;
#96 = ORIENTED_EDGE ( 'NONE', *, *, #73, .T. ) ;
#97 = FACE_OUTER_BOUND ( 'NONE', #72, .T. ) ;
#98 = SURFACE_STYLE_FILL_AREA ( #58 ) ;
#99 = EDGE_CURVE ( 'NONE', #204, #144, #17, .T. ) ;
#100 =( GEOMETRIC_REPRESENTATION_CONTEXT ( 3 ) GLOBAL_UNCERTAINTY_ASSIGNED_CONTEXT ( ( #6 ) ) GLOBAL_UNIT_ASSIGNED_CONTEXT ( ( #140, #27, #121 ) ) REPRESENTATION_CONTEXT ( 'NONE', 'WORKASPACE' ) );
#101 =( NAMED_UNIT ( * ) PLANE_ANGLE_UNIT ( ) SI_UNIT ( $, .RADIAN. ) );
#102 = PRODUCT_DEFINITION ( 'UNKNOWN', '', #151, #60 ) ;
#103 = DIRECTION ( 'NONE',  ( 0.7071067811865544561, 7.188553901197264566E-16, 0.7071067811865406894 ) ) ;
#104 =( NAMED_UNIT ( * ) PLANE_ANGLE_UNIT ( ) SI_UNIT ( $, .RADIAN. ) );
#105 = PRODUCT ( '20094', '20094', '', ( #111 ) ) ;
#106 = CONTEXT_DEPENDENT_SHAPE_REPRESENTATION ( #79, #234 ) ;
#107 = CARTESIAN_POINT ( 'NONE',  ( 0.000000000000000000, 10.00000000000002665, 0.000000000000000000 ) ) ;
#108 = ITEM_DEFINED_TRANSFORMATION ( 'NONE', 'NONE', #51,  #32 ) ;
#109 = ORIENTED_EDGE ( 'NONE', *, *, #99, .T. ) ;
#110 = VECTOR ( 'NONE', #221, 999.9999999999998863 ) ;
#111 = PRODUCT_CONTEXT ( 'NONE', #158, 'mechanical' ) ;
#112 = AXIS2_PLACEMENT_3D ( 'NONE', #177, #48, #31 ) ;
#113 = ORIENTED_EDGE ( 'NONE', *, *, #25, .T. ) ;
#114 = CONTEXT_DEPENDENT_SHAPE_REPRESENTATION ( #217, #216 ) ;
#115 = DIRECTION ( 'NONE',  ( 2.220446049250329844E-16, -1.000000000000000000, 7.979725449430331936E-31 ) ) ;
#116 = CARTESIAN_POINT ( 'NONE',  ( 0.000000000000000000, 10.00000000000002665, 0.000000000000000000 ) ) ;
#117 = VECTOR ( 'NONE', #88, 1000.000000000000000 ) ;
#118 = CARTESIAN_POINT ( 'NONE',  ( 7.071067811865583863, 10.00000000000001599, -7.071067811865502151 ) ) ;
#119 = AXIS2_PLACEMENT_3D ( 'NONE', #23, #77, #169 ) ;
#120 = LINE ( 'NONE', #232, #148 ) ;
#121 =( NAMED_UNIT ( * ) SI_UNIT ( $, .STERADIAN. ) SOLID_ANGLE_UNIT ( ) );
#122 = PRODUCT ( '32543', '32543', '', ( #124 ) ) ;
#123 = PRODUCT_DEFINITION ( 'UNKNOWN', '', #139, #95 ) ;
#124 = PRODUCT_CONTEXT ( 'NONE', #91, 'mechanical' ) ;
#125 = PRODUCT_DEFINITION_SHAPE ( 'NONE', 'NONE',  #14 ) ;
#126 = DIRECTION ( 'NONE',  ( 1.000000000000000000, 0.000000000000000000, 0.000000000000000000 ) ) ;
#127 = CARTESIAN_POINT ( 'NONE',  ( 0.000000000000000000, 0.000000000000000000, 0.000000000000000000 ) ) ;
#128 = UNCERTAINTY_MEASURE_WITH_UNIT (LENGTH_MEASURE( 1.000000000000000082E-05 ), #220, 'distance_accuracy_value', 'NONE');
#129 = ORIENTED_EDGE ( 'NONE', *, *, #235, .T. ) ;
#130 = PRESENTATION_LAYER_ASSIGNMENT (  '', '', ( #61 ) ) ;
#131 = APPLICATION_PROTOCOL_DEFINITION ( 'draft international standard', 'automotive_design', 1998, #91 ) ;
#132 = AXIS2_PLACEMENT_3D ( 'NONE', #26, #200, #44 ) ;
#133 = ORIENTED_EDGE ( 'NONE', *, *, #194, .F. ) ;
#134 =( NAMED_UNIT ( * ) SI_UNIT ( $, .STERADIAN. ) SOLID_ANGLE_UNIT ( ) );
#135 = PLANE ( 'NONE',  #50 ) ;
#136 =( LENGTH_UNIT ( ) NAMED_UNIT ( * ) SI_UNIT ( .MILLI., .METRE. ) );
#137 =( LENGTH_UNIT ( ) NAMED_UNIT ( * ) SI_UNIT ( .MILLI., .METRE. ) );
#138 =( GEOMETRIC_REPRESENTATION_CONTEXT ( 3 ) GLOBAL_UNCERTAINTY_ASSIGNED_CONTEXT ( ( #207 ) ) GLOBAL_UNIT_ASSIGNED_CONTEXT ( ( #137, #104, #83 ) ) REPRESENTATION_CONTEXT ( 'NONE', 'WORKASPACE' ) );
#139 = PRODUCT_DEFINITION_FORMATION_WITH_SPECIFIED_SOURCE ( 'ANY', '', #122, .NOT_KNOWN. ) ;
#140 =( LENGTH_UNIT ( ) NAMED_UNIT ( * ) SI_UNIT ( .MILLI., .METRE. ) );
#141 = PRODUCT_CONTEXT ( 'NONE', #59, 'mechanical' ) ;
#142 = EDGE_CURVE ( 'NONE', #71, #166, #92, .T. ) ;
#143 = ORIENTED_EDGE ( 'NONE', *, *, #73, .F. ) ;
#144 = VERTEX_POINT ( 'NONE', #162 ) ;
#145 = APPLICATION_PROTOCOL_DEFINITION ( 'draft international standard', 'automotive_design', 1998, #158 ) ;
#146 = ORIENTED_EDGE ( 'NONE', *, *, #99, .F. ) ;
#147 = EDGE_CURVE ( 'NONE', #30, #71, #165, .T. ) ;
#148 = VECTOR ( 'NONE', #231, 1000.000000000000000 ) ;
#149 = CARTESIAN_POINT ( 'NONE',  ( 0.000000000000000000, 10.00000000000002665, 0.000000000000000000 ) ) ;
#150 = FACE_OUTER_BOUND ( 'NONE', #224, .T. ) ;
#151 = PRODUCT_DEFINITION_FORMATION_WITH_SPECIFIED_SOURCE ( 'ANY', '', #105, .NOT_KNOWN. ) ;
#152 = DIRECTION ( 'NONE',  ( -0.7071067811865535679, 1.570092458683794642E-16, 0.7071067811865415775 ) ) ;
#153 = UNCERTAINTY_MEASURE_WITH_UNIT (LENGTH_MEASURE( 1.000000000000000082E-05 ), #155, 'distance_accuracy_value', 'NONE');
#154 = SURFACE_SIDE_STYLE ('',( #66 ) ) ;
#155 =( LENGTH_UNIT ( ) NAMED_UNIT ( * ) SI_UNIT ( .MILLI., .METRE. ) );
#156 = VECTOR ( 'NONE', #94, 1000.000000000000000 ) ;
#157 = SHAPE_REPRESENTATION ( '47121', ( #62, #51, #132 ), #195 ) ;
#158 = APPLICATION_CONTEXT ( 'automotive_design' ) ;
#159 = ADVANCED_FACE ( 'NONE', ( #160 ), #243, .T. ) ;
#160 = FACE_OUTER_BOUND ( 'NONE', #34, .T. ) ;
#161 = CARTESIAN_POINT ( 'NONE',  ( 3.295974604355933479E-14, 10.00000000000002309, 10.00000000000001954 ) ) ;
#162 = CARTESIAN_POINT ( 'NONE',  ( 0.000000000000000000, 0.000000000000000000, 0.000000000000000000 ) ) ;
#163 = APPLICATION_PROTOCOL_DEFINITION ( 'draft international standard', 'automotive_design', 1998, #197 ) ;
#164 = PRODUCT_RELATED_PRODUCT_CATEGORY ( 'part', '', ( #8 ) ) ;
#165 = LINE ( 'NONE', #69, #156 ) ;
#166 = VERTEX_POINT ( 'NONE', #118 ) ;
#167 = ORIENTED_EDGE ( 'NONE', *, *, #65, .T. ) ;
#168 = LINE ( 'NONE', #188, #176 ) ;
#169 = DIRECTION ( 'NONE',  ( -1.000000000000000000, 2.220446049250329351E-16, -2.576236144148255968E-15 ) ) ;
#170 = COLOUR_RGB ( '',0.7529411764705882248, 0.7529411764705882248, 0.7529411764705882248 ) ;
#171 = STYLED_ITEM ( 'NONE', ( #218 ), #43 ) ;
#172 = CARTESIAN_POINT ( 'NONE',  ( 14.14213562373101496, 10.00000000000001599, 3.642919299551294898E-14 ) ) ;
#173 = CARTESIAN_POINT ( 'NONE',  ( 7.071067811865583863, 10.00000000000001599, -7.071067811865502151 ) ) ;
#174 = SHAPE_REPRESENTATION ( '32543', ( #32 ), #138 ) ;
#175 = CARTESIAN_POINT ( 'NONE',  ( 0.000000000000000000, 0.000000000000000000, 0.000000000000000000 ) ) ;
#176 = VECTOR ( 'NONE', #2, 999.9999999999998863 ) ;
#177 = CARTESIAN_POINT ( 'NONE',  ( 0.000000000000000000, 0.000000000000000000, 0.000000000000000000 ) ) ;
#178 = DIRECTION ( 'NONE',  ( -0.7071067811865517916, 1.570092458683790944E-16, 0.7071067811865433539 ) ) ;
#179 = APPLICATION_PROTOCOL_DEFINITION ( 'draft international standard', 'automotive_design', 1998, #54 ) ;
#180 = ORIENTED_EDGE ( 'NONE', *, *, #235, .F. ) ;
#181 =( NAMED_UNIT ( * ) SI_UNIT ( $, .STERADIAN. ) SOLID_ANGLE_UNIT ( ) );
#182 = EDGE_LOOP ( 'NONE', ( #167, #203, #13, #113 ) ) ;
#183 = SHAPE_DEFINITION_REPRESENTATION ( #90, #174 ) ;
#184 = SHAPE_DEFINITION_REPRESENTATION ( #199, #233 ) ;
#185 = LINE ( 'NONE', #149, #22 ) ;
#186 = CARTESIAN_POINT ( 'NONE',  ( 14.14213562373100785, -1.734723475976807094E-15, 3.642919299551294898E-14 ) ) ;
#187 = ORIENTED_EDGE ( 'NONE', *, *, #142, .T. ) ;
#188 = CARTESIAN_POINT ( 'NONE',  ( 7.071067811865587416, -1.734723475976807094E-15, -7.071067811865502151 ) ) ;
#189 = ADVANCED_FACE ( 'NONE', ( #150 ), #135, .F. ) ;
#190 = FACE_OUTER_BOUND ( 'NONE', #182, .T. ) ;
#191 = CLOSED_SHELL ( 'NONE', ( #212, #189, #228, #240, #159 ) ) ;
#192 = PRESENTATION_STYLE_ASSIGNMENT (( #78 ) ) ;
#193 = VECTOR ( 'NONE', #178, 1000.000000000000000 ) ;
#194 = EDGE_CURVE ( 'NONE', #166, #204, #120, .T. ) ;
#195 =( GEOMETRIC_REPRESENTATION_CONTEXT ( 3 ) GLOBAL_UNCERTAINTY_ASSIGNED_CONTEXT ( ( #153 ) ) GLOBAL_UNIT_ASSIGNED_CONTEXT ( ( #155, #28, #63 ) ) REPRESENTATION_CONTEXT ( 'NONE', 'WORKASPACE' ) );
#196 = DIRECTION ( 'NONE',  ( 0.7071067811865406894, -1.693230295804132711E-16, -0.7071067811865544561 ) ) ;
#197 = APPLICATION_CONTEXT ( 'automotive_design' ) ;
#198 = MANIFOLD_SOLID_BREP ( 'Boss-Extrude1', #191 ) ;
#199 = PRODUCT_DEFINITION_SHAPE ( 'NONE', 'NONE',  #102 ) ;
#200 = DIRECTION ( 'NONE',  ( -0.7071067811865544561, -7.188553901197265552E-16, -0.7071067811865406894 ) ) ;
#201 = EDGE_CURVE ( 'NONE', #71, #67, #24, .T. ) ;
#202 = APPLICATION_CONTEXT ( 'automotive_design' ) ;
#203 = ORIENTED_EDGE ( 'NONE', *, *, #201, .F. ) ;
#204 = VERTEX_POINT ( 'NONE', #5 ) ;
#205 =( NAMED_UNIT ( * ) PLANE_ANGLE_UNIT ( ) SI_UNIT ( $, .RADIAN. ) );
#206 = CARTESIAN_POINT ( 'NONE',  ( 14.14213562373101496, 10.00000000000001599, 3.642919299551294898E-14 ) ) ;
#207 = UNCERTAINTY_MEASURE_WITH_UNIT (LENGTH_MEASURE( 1.000000000000000082E-05 ), #137, 'distance_accuracy_value', 'NONE');
#208 = ORIENTED_EDGE ( 'NONE', *, *, #201, .T. ) ;
#209 = ORIENTED_EDGE ( 'NONE', *, *, #147, .T. ) ;
#210 = PLANE ( 'NONE',  #9 ) ;
#211 = CARTESIAN_POINT ( 'NONE',  ( 0.000000000000000000, 10.00000000000002665, 0.000000000000000000 ) ) ;
#212 = ADVANCED_FACE ( 'NONE', ( #190 ), #4, .F. ) ;
#213 = DIRECTION ( 'NONE',  ( 0.7071067811865516806, -1.570092458683790451E-16, -0.7071067811865433539 ) ) ;
#214 = AXIS2_PLACEMENT_3D ( 'NONE', #211, #89, #45 ) ;
#215 = CARTESIAN_POINT ( 'NONE',  ( -10.00000000000001599, -10.00000000000002665, -3.268219028740306459E-14 ) ) ;
#216 = PRODUCT_DEFINITION_SHAPE ( 'NONE', 'NONE',  #245 ) ;
#217 =( REPRESENTATION_RELATIONSHIP ('NONE','NONE', #157, #174 ) REPRESENTATION_RELATIONSHIP_WITH_TRANSFORMATION ( #108 )SHAPE_REPRESENTATION_RELATIONSHIP( ) );
#218 = PRESENTATION_STYLE_ASSIGNMENT (( #237 ) ) ;
#219 = SHAPE_REPRESENTATION_RELATIONSHIP ( 'NONE' , 'NONE' ,  #174, #43 ) ;
#220 =( LENGTH_UNIT ( ) NAMED_UNIT ( * ) SI_UNIT ( .MILLI., .METRE. ) );
#221 = DIRECTION ( 'NONE',  ( -0.7071067811865415775, 1.570092458683779358E-16, -0.7071067811865535679 ) ) ;
#222 = VECTOR ( 'NONE', #115, 1000.000000000000000 ) ;
#223 = UNCERTAINTY_MEASURE_WITH_UNIT (LENGTH_MEASURE( 1.000000000000000082E-05 ), #136, 'distance_accuracy_value', 'NONE');
#224 = EDGE_LOOP ( 'NONE', ( #129, #133, #1, #208 ) ) ;
#225 = APPLICATION_PROTOCOL_DEFINITION ( 'draft international standard', 'automotive_design', 1998, #202 ) ;
#226 = COLOUR_RGB ( '',0.7529411764705882248, 0.7529411764705882248, 0.7529411764705882248 ) ;
#227 = MECHANICAL_DESIGN_GEOMETRIC_PRESENTATION_REPRESENTATION (  '', ( #171 ), #100 ) ;
#228 = ADVANCED_FACE ( 'NONE', ( #97 ), #210, .F. ) ;
#229 =( REPRESENTATION_RELATIONSHIP ('NONE','NONE', #233, #157 ) REPRESENTATION_RELATIONSHIP_WITH_TRANSFORMATION ( #68 )SHAPE_REPRESENTATION_RELATIONSHIP( ) );
#230 = CARTESIAN_POINT ( 'NONE',  ( 0.000000000000000000, 0.000000000000000000, 0.000000000000000000 ) ) ;
#231 = DIRECTION ( 'NONE',  ( 2.220446049250329844E-16, -1.000000000000000000, 7.979725449430331936E-31 ) ) ;
#232 = CARTESIAN_POINT ( 'NONE',  ( 7.071067811865583863, 10.00000000000001599, -7.071067811865502151 ) ) ;
#233 = SHAPE_REPRESENTATION ( '20094', ( #3, #82 ), #15 ) ;
#234 = PRODUCT_DEFINITION_SHAPE ( 'NONE', 'NONE',  #246 ) ;
#235 = EDGE_CURVE ( 'NONE', #67, #204, #168, .T. ) ;
#236 = FILL_AREA_STYLE_COLOUR ( '', #170 ) ;
#237 = SURFACE_STYLE_USAGE ( .BOTH. , #154 ) ;
#238 =( GEOMETRIC_REPRESENTATION_CONTEXT ( 3 ) GLOBAL_UNCERTAINTY_ASSIGNED_CONTEXT ( ( #223 ) ) GLOBAL_UNIT_ASSIGNED_CONTEXT ( ( #136, #101, #134 ) ) REPRESENTATION_CONTEXT ( 'NONE', 'WORKASPACE' ) );
#239 = PRESENTATION_LAYER_ASSIGNMENT (  '', '', ( #171 ) ) ;
#240 = ADVANCED_FACE ( 'NONE', ( #56 ), #74, .F. ) ;
#241 = CARTESIAN_POINT ( 'NONE',  ( 14.14213562373100785, -1.734723475976807094E-15, 3.642919299551294898E-14 ) ) ;
#242 = DIRECTION ( 'NONE',  ( 9.000135878565358921E-17, 1.000000000000000000, -6.661338147750939243E-16 ) ) ;
#243 = PLANE ( 'NONE',  #70 ) ;
#244 = NEXT_ASSEMBLY_USAGE_OCCURRENCE ( 'NAUO1', ' ', ' ', #102, #14, $ ) ;
#245 = NEXT_ASSEMBLY_USAGE_OCCURRENCE ( 'NAUO2', ' ', ' ', #14, #123, $ ) ;
#246 = NEXT_ASSEMBLY_USAGE_OCCURRENCE ( 'NAUO3', ' ', ' ', #14, #123, $ ) ;
ENDSEC;
END-ISO-10303-21;
