ISO-10303-21;
HEADER;
FILE_DESCRIPTION (( 'STEP AP203' ),
    '1' );
FILE_NAME ('Web Model 89558.STEP',
    '2017-02-01T16:29:13',
    ( '' ),
    ( '' ),
    'SwSTEP 2.0',
    'SolidWorks 2016',
    '' );
FILE_SCHEMA (( 'CONFIG_CONTROL_DESIGN' ));
ENDSEC;

DATA;
#1 = APPROVAL ( #134, 'UNSPECIFIED' ) ;
#2 = PERSON_AND_ORGANIZATION ( #154, #80 ) ;
#3 = CARTESIAN_POINT ( 'NONE',  ( 0.0000000000000000000, 0.0000000000000000000, 0.0000000000000000000 ) ) ;
#4 = PERSON_AND_ORGANIZATION_ROLE ( 'creator' ) ;
#5 = EDGE_CURVE ( 'NONE', #59, #7, #21, .T. ) ;
#6 = APPROVAL_STATUS ( 'not_yet_approved' ) ;
#7 = VERTEX_POINT ( 'NONE', #16 ) ;
#8 = ADVANCED_FACE ( 'NONE', ( #38 ), #165, .T. ) ;
#9 = DIRECTION ( 'NONE',  ( 0.0000000000000000000, 0.0000000000000000000, -1.000000000000000000 ) ) ;
#10 = DIRECTION ( 'NONE',  ( -1.000000000000000000, -0.0000000000000000000, -0.0000000000000000000 ) ) ;
#11 = ADVANCED_FACE ( 'NONE', ( #55 ), #125, .T. ) ;
#12 = EDGE_CURVE ( 'NONE', #7, #69, #142, .T. ) ;
#13 = ORIENTED_EDGE ( 'NONE', *, *, #5, .T. ) ;
#14 = PRODUCT ( 'Web Model 89558', 'Web Model 89558', '', ( #41 ) ) ;
#15 = CARTESIAN_POINT ( 'NONE',  ( 0.0000000000000000000, 0.0000000000000000000, 0.0000000000000000000 ) ) ;
#16 = CARTESIAN_POINT ( 'NONE',  ( 0.0000000000000000000, 6.123233995736768300E-016, -5.000000000000001800 ) ) ;
#17 = DIRECTION ( 'NONE',  ( 1.000000000000000000, 0.0000000000000000000, 0.0000000000000000000 ) ) ;
#18 = LOCAL_TIME ( 11, 29, 13.00000000000000000, #46 ) ;
#19 = PRODUCT_DEFINITION ( 'UNKNOWN', '', #157, #87 ) ;
#20 =( NAMED_UNIT ( * ) PLANE_ANGLE_UNIT ( ) SI_UNIT ( $, .RADIAN. ) );
#21 = LINE ( 'NONE', #58, #175 ) ;
#22 = AXIS2_PLACEMENT_3D ( 'NONE', #161, #17, #86 ) ;
#23 = DATE_TIME_ROLE ( 'creation_date' ) ;
#24 = CARTESIAN_POINT ( 'NONE',  ( 0.0000000000000000000, 0.0000000000000000000, 0.0000000000000000000 ) ) ;
#25 = COORDINATED_UNIVERSAL_TIME_OFFSET ( 5, 0, .BEHIND. ) ;
#26 = PLANE ( 'NONE',  #54 ) ;
#27 = APPROVAL_PERSON_ORGANIZATION ( #140, #146, #163 ) ;
#28 = ORIENTED_EDGE ( 'NONE', *, *, #141, .T. ) ;
#29 = ADVANCED_BREP_SHAPE_REPRESENTATION ( 'Web Model 89558', ( #62, #73 ), #34 ) ;
#30 = DIRECTION ( 'NONE',  ( 0.0000000000000000000, 0.0000000000000000000, 1.000000000000000000 ) ) ;
#31 = COORDINATED_UNIVERSAL_TIME_OFFSET ( 5, 0, .BEHIND. ) ;
#32 = SECURITY_CLASSIFICATION_LEVEL ( 'unclassified' ) ;
#33 = CC_DESIGN_PERSON_AND_ORGANIZATION_ASSIGNMENT ( #144, #130, ( #150 ) ) ;
#34 =( GEOMETRIC_REPRESENTATION_CONTEXT ( 3 ) GLOBAL_UNCERTAINTY_ASSIGNED_CONTEXT ( ( #91 ) ) GLOBAL_UNIT_ASSIGNED_CONTEXT ( ( #50, #20, #145 ) ) REPRESENTATION_CONTEXT ( 'NONE', 'WORKASPACE' ) );
#35 = APPROVAL_ROLE ( '' ) ;
#36 = EDGE_LOOP ( 'NONE', ( #75, #173 ) ) ;
#37 = CALENDAR_DATE ( 2017, 1, 2 ) ;
#38 = FACE_OUTER_BOUND ( 'NONE', #84, .T. ) ;
#39 = DATE_AND_TIME ( #77, #18 ) ;
#40 = CARTESIAN_POINT ( 'NONE',  ( 1.500000000000000000, 0.0000000000000000000, 5.000000000000001800 ) ) ;
#41 = MECHANICAL_CONTEXT ( 'NONE', #85, 'mechanical' ) ;
#42 = CARTESIAN_POINT ( 'NONE',  ( 1.500000000000000000, 0.0000000000000000000, 5.000000000000001800 ) ) ;
#43 = DIRECTION ( 'NONE',  ( 0.0000000000000000000, 0.0000000000000000000, -1.000000000000000000 ) ) ;
#44 = CARTESIAN_POINT ( 'NONE',  ( 1.500000000000000000, 0.0000000000000000000, 0.0000000000000000000 ) ) ;
#45 = FACE_OUTER_BOUND ( 'NONE', #111, .T. ) ;
#46 = COORDINATED_UNIVERSAL_TIME_OFFSET ( 5, 0, .BEHIND. ) ;
#47 = EDGE_CURVE ( 'NONE', #59, #49, #104, .T. ) ;
#48 = DATE_AND_TIME ( #152, #61 ) ;
#49 = VERTEX_POINT ( 'NONE', #42 ) ;
#50 =( LENGTH_UNIT ( ) NAMED_UNIT ( * ) SI_UNIT ( .MILLI., .METRE. ) );
#51 = PRODUCT_DEFINITION_SHAPE ( 'NONE', 'NONE',  #19 ) ;
#52 = EDGE_LOOP ( 'NONE', ( #88, #117 ) ) ;
#53 = ADVANCED_FACE ( 'NONE', ( #45 ), #101, .T. ) ;
#54 = AXIS2_PLACEMENT_3D ( 'NONE', #15, #112, #70 ) ;
#55 = FACE_OUTER_BOUND ( 'NONE', #52, .T. ) ;
#56 = PERSON_AND_ORGANIZATION_ROLE ( 'design_owner' ) ;
#57 = DIRECTION ( 'NONE',  ( 1.000000000000000000, 0.0000000000000000000, 0.0000000000000000000 ) ) ;
#58 = CARTESIAN_POINT ( 'NONE',  ( 1.500000000000000000, 6.123233995736768300E-016, -5.000000000000001800 ) ) ;
#59 = VERTEX_POINT ( 'NONE', #67 ) ;
#60 = APPROVAL_PERSON_ORGANIZATION ( #99, #164, #94 ) ;
#61 = LOCAL_TIME ( 11, 29, 13.00000000000000000, #76 ) ;
#62 = MANIFOLD_SOLID_BREP ( 'Extrude1', #138 ) ;
#63 = ORIENTED_EDGE ( 'NONE', *, *, #47, .F. ) ;
#64 = PERSON_AND_ORGANIZATION ( #154, #80 ) ;
#65 = DIRECTION ( 'NONE',  ( 0.0000000000000000000, 0.0000000000000000000, -1.000000000000000000 ) ) ;
#66 = LINE ( 'NONE', #40, #136 ) ;
#67 = CARTESIAN_POINT ( 'NONE',  ( 1.500000000000000000, 6.123233995736768300E-016, -5.000000000000001800 ) ) ;
#68 = CARTESIAN_POINT ( 'NONE',  ( 1.500000000000000000, 0.0000000000000000000, 0.0000000000000000000 ) ) ;
#69 = VERTEX_POINT ( 'NONE', #82 ) ;
#70 = DIRECTION ( 'NONE',  ( 0.0000000000000000000, 0.0000000000000000000, -1.000000000000000000 ) ) ;
#71 = LOCAL_TIME ( 11, 29, 13.00000000000000000, #106 ) ;
#72 = CC_DESIGN_PERSON_AND_ORGANIZATION_ASSIGNMENT ( #79, #4, ( #157 ) ) ;
#73 = AXIS2_PLACEMENT_3D ( 'NONE', #3, #30, #123 ) ;
#74 = APPROVAL_DATE_TIME ( #39, #1 ) ;
#75 = ORIENTED_EDGE ( 'NONE', *, *, #137, .F. ) ;
#76 = COORDINATED_UNIVERSAL_TIME_OFFSET ( 5, 0, .BEHIND. ) ;
#77 = CALENDAR_DATE ( 2017, 1, 2 ) ;
#78 = APPROVAL_DATE_TIME ( #48, #146 ) ;
#79 = PERSON_AND_ORGANIZATION ( #154, #80 ) ;
#80 = ORGANIZATION ( 'UNSPECIFIED', 'UNSPECIFIED', '' ) ;
#81 = DIRECTION ( 'NONE',  ( 0.0000000000000000000, 0.0000000000000000000, 1.000000000000000000 ) ) ;
#82 = CARTESIAN_POINT ( 'NONE',  ( 0.0000000000000000000, 0.0000000000000000000, 5.000000000000001800 ) ) ;
#83 = AXIS2_PLACEMENT_3D ( 'NONE', #107, #57, #65 ) ;
#84 = EDGE_LOOP ( 'NONE', ( #156, #143, #28, #105 ) ) ;
#85 = APPLICATION_CONTEXT ( 'configuration controlled 3d designs of mechanical parts and assemblies' ) ;
#86 = DIRECTION ( 'NONE',  ( 0.0000000000000000000, 0.0000000000000000000, -1.000000000000000000 ) ) ;
#87 = DESIGN_CONTEXT ( 'detailed design', #172, 'design' ) ;
#88 = ORIENTED_EDGE ( 'NONE', *, *, #147, .T. ) ;
#89 = APPROVAL_PERSON_ORGANIZATION ( #127, #1, #35 ) ;
#90 = DATE_TIME_ROLE ( 'classification_date' ) ;
#91 = UNCERTAINTY_MEASURE_WITH_UNIT (LENGTH_MEASURE( 1.000000000000000100E-005 ), #50, 'distance_accuracy_value', 'NONE');
#92 = APPROVAL_STATUS ( 'not_yet_approved' ) ;
#93 = AXIS2_PLACEMENT_3D ( 'NONE', #44, #113, #139 ) ;
#94 = APPROVAL_ROLE ( '' ) ;
#95 = PERSON_AND_ORGANIZATION ( #154, #80 ) ;
#96 = CIRCLE ( 'NONE', #118, 5.000000000000001800 ) ;
#97 = DIRECTION ( 'NONE',  ( 1.000000000000000000, 0.0000000000000000000, 0.0000000000000000000 ) ) ;
#98 = DIRECTION ( 'NONE',  ( -1.000000000000000000, -0.0000000000000000000, -0.0000000000000000000 ) ) ;
#99 = PERSON_AND_ORGANIZATION ( #154, #80 ) ;
#100 = CC_DESIGN_APPROVAL ( #146, ( #150 ) ) ;
#101 = CYLINDRICAL_SURFACE ( 'NONE', #120, 5.000000000000001800 ) ;
#102 = DATE_AND_TIME ( #37, #71 ) ;
#103 = CC_DESIGN_APPROVAL ( #1, ( #19 ) ) ;
#104 = CIRCLE ( 'NONE', #83, 5.000000000000001800 ) ;
#105 = ORIENTED_EDGE ( 'NONE', *, *, #137, .T. ) ;
#106 = COORDINATED_UNIVERSAL_TIME_OFFSET ( 5, 0, .BEHIND. ) ;
#107 = CARTESIAN_POINT ( 'NONE',  ( 1.500000000000000000, 0.0000000000000000000, 0.0000000000000000000 ) ) ;
#108 = CC_DESIGN_PERSON_AND_ORGANIZATION_ASSIGNMENT ( #95, #56, ( #14 ) ) ;
#109 = SHAPE_DEFINITION_REPRESENTATION ( #51, #29 ) ;
#110 = DIRECTION ( 'NONE',  ( -1.000000000000000000, -0.0000000000000000000, -0.0000000000000000000 ) ) ;
#111 = EDGE_LOOP ( 'NONE', ( #63, #13, #148, #168 ) ) ;
#112 = DIRECTION ( 'NONE',  ( 1.000000000000000000, 0.0000000000000000000, 0.0000000000000000000 ) ) ;
#113 = DIRECTION ( 'NONE',  ( -1.000000000000000000, -0.0000000000000000000, -0.0000000000000000000 ) ) ;
#114 = CALENDAR_DATE ( 2017, 1, 2 ) ;
#115 = CC_DESIGN_DATE_AND_TIME_ASSIGNMENT ( #169, #90, ( #150 ) ) ;
#116 = FACE_OUTER_BOUND ( 'NONE', #36, .T. ) ;
#117 = ORIENTED_EDGE ( 'NONE', *, *, #47, .T. ) ;
#118 = AXIS2_PLACEMENT_3D ( 'NONE', #126, #124, #43 ) ;
#119 = APPLICATION_PROTOCOL_DEFINITION ( 'international standard', 'config_control_design', 1994, #172 ) ;
#120 = AXIS2_PLACEMENT_3D ( 'NONE', #68, #110, #81 ) ;
#121 = DIRECTION ( 'NONE',  ( 1.000000000000000000, 0.0000000000000000000, 0.0000000000000000000 ) ) ;
#122 = APPLICATION_PROTOCOL_DEFINITION ( 'international standard', 'config_control_design', 1994, #85 ) ;
#123 = DIRECTION ( 'NONE',  ( 1.000000000000000000, 0.0000000000000000000, 0.0000000000000000000 ) ) ;
#124 = DIRECTION ( 'NONE',  ( 1.000000000000000000, 0.0000000000000000000, 0.0000000000000000000 ) ) ;
#125 = PLANE ( 'NONE',  #22 ) ;
#126 = CARTESIAN_POINT ( 'NONE',  ( 1.500000000000000000, 0.0000000000000000000, 0.0000000000000000000 ) ) ;
#127 = PERSON_AND_ORGANIZATION ( #154, #80 ) ;
#128 = CC_DESIGN_SECURITY_CLASSIFICATION ( #150, ( #157 ) ) ;
#129 = DATE_AND_TIME ( #135, #166 ) ;
#130 = PERSON_AND_ORGANIZATION_ROLE ( 'classification_officer' ) ;
#131 = CC_DESIGN_PERSON_AND_ORGANIZATION_ASSIGNMENT ( #64, #133, ( #19 ) ) ;
#132 = PERSON_AND_ORGANIZATION_ROLE ( 'design_supplier' ) ;
#133 = PERSON_AND_ORGANIZATION_ROLE ( 'creator' ) ;
#134 = APPROVAL_STATUS ( 'not_yet_approved' ) ;
#135 = CALENDAR_DATE ( 2017, 1, 2 ) ;
#136 = VECTOR ( 'NONE', #10, 1000.000000000000000 ) ;
#137 = EDGE_CURVE ( 'NONE', #69, #7, #167, .T. ) ;
#138 = CLOSED_SHELL ( 'NONE', ( #53, #8, #11, #158 ) ) ;
#139 = DIRECTION ( 'NONE',  ( 0.0000000000000000000, 0.0000000000000000000, 1.000000000000000000 ) ) ;
#140 = PERSON_AND_ORGANIZATION ( #154, #80 ) ;
#141 = EDGE_CURVE ( 'NONE', #49, #69, #66, .T. ) ;
#142 = CIRCLE ( 'NONE', #155, 5.000000000000001800 ) ;
#143 = ORIENTED_EDGE ( 'NONE', *, *, #147, .F. ) ;
#144 = PERSON_AND_ORGANIZATION ( #154, #80 ) ;
#145 =( NAMED_UNIT ( * ) SI_UNIT ( $, .STERADIAN. ) SOLID_ANGLE_UNIT ( ) );
#146 = APPROVAL ( #92, 'UNSPECIFIED' ) ;
#147 = EDGE_CURVE ( 'NONE', #49, #59, #96, .T. ) ;
#148 = ORIENTED_EDGE ( 'NONE', *, *, #12, .T. ) ;
#149 = LOCAL_TIME ( 11, 29, 13.00000000000000000, #31 ) ;
#150 = SECURITY_CLASSIFICATION ( '', '', #32 ) ;
#151 = CC_DESIGN_DATE_AND_TIME_ASSIGNMENT ( #129, #23, ( #19 ) ) ;
#152 = CALENDAR_DATE ( 2017, 1, 2 ) ;
#153 = DIRECTION ( 'NONE',  ( 0.0000000000000000000, 0.0000000000000000000, -1.000000000000000000 ) ) ;
#154 = PERSON ( 'UNSPECIFIED', 'UNSPECIFIED', 'UNSPECIFIED', ('UNSPECIFIED'), ('UNSPECIFIED'), ('UNSPECIFIED') ) ;
#155 = AXIS2_PLACEMENT_3D ( 'NONE', #159, #97, #9 ) ;
#156 = ORIENTED_EDGE ( 'NONE', *, *, #5, .F. ) ;
#157 = PRODUCT_DEFINITION_FORMATION_WITH_SPECIFIED_SOURCE ( 'ANY', '', #14, .NOT_KNOWN. ) ;
#158 = ADVANCED_FACE ( 'NONE', ( #116 ), #26, .F. ) ;
#159 = CARTESIAN_POINT ( 'NONE',  ( 0.0000000000000000000, 0.0000000000000000000, 0.0000000000000000000 ) ) ;
#160 = AXIS2_PLACEMENT_3D ( 'NONE', #24, #121, #153 ) ;
#161 = CARTESIAN_POINT ( 'NONE',  ( 1.500000000000000000, 0.0000000000000000000, 0.0000000000000000000 ) ) ;
#162 = CC_DESIGN_PERSON_AND_ORGANIZATION_ASSIGNMENT ( #2, #132, ( #157 ) ) ;
#163 = APPROVAL_ROLE ( '' ) ;
#164 = APPROVAL ( #6, 'UNSPECIFIED' ) ;
#165 = CYLINDRICAL_SURFACE ( 'NONE', #93, 5.000000000000001800 ) ;
#166 = LOCAL_TIME ( 11, 29, 13.00000000000000000, #25 ) ;
#167 = CIRCLE ( 'NONE', #160, 5.000000000000001800 ) ;
#168 = ORIENTED_EDGE ( 'NONE', *, *, #141, .F. ) ;
#169 = DATE_AND_TIME ( #114, #149 ) ;
#170 = PRODUCT_RELATED_PRODUCT_CATEGORY ( 'detail', '', ( #14 ) ) ;
#171 = CC_DESIGN_APPROVAL ( #164, ( #157 ) ) ;
#172 = APPLICATION_CONTEXT ( 'configuration controlled 3d designs of mechanical parts and assemblies' ) ;
#173 = ORIENTED_EDGE ( 'NONE', *, *, #12, .F. ) ;
#174 = APPROVAL_DATE_TIME ( #102, #164 ) ;
#175 = VECTOR ( 'NONE', #98, 1000.000000000000000 ) ;
ENDSEC;
END-ISO-10303-21;
