ISO-10303-21;
HEADER;
FILE_DESCRIPTION (( 'STEP AP203' ),
    '1' );
FILE_NAME ('TTN023909-E0W.STEP',
    '2014-04-22T14:50:52',
    ( 'admin' ),
    ( '' ),
    'SwSTEP 2.0',
    'SolidWorks 2012',
    '' );
FILE_SCHEMA (( 'CONFIG_CONTROL_DESIGN' ));
ENDSEC;

DATA;
#1 = ORIENTED_EDGE ( 'NONE', *, *, #259, .F. ) ;
#2 = ORIENTED_EDGE ( 'NONE', *, *, #248, .F. ) ;
#3 = ORIENTED_EDGE ( 'NONE', *, *, #250, .T. ) ;
#4 = ORIENTED_EDGE ( 'NONE', *, *, #241, .T. ) ;
#5 = ORIENTED_EDGE ( 'NONE', *, *, #239, .T. ) ;
#6 = ORIENTED_EDGE ( 'NONE', *, *, #238, .T. ) ;
#7 = DIRECTION ( 'NONE',  ( 0.0000000000000000000, 1.000000000000000000, -1.339827074941437200E-015 ) ) ;
#8 = DIRECTION ( 'NONE',  ( 0.0000000000000000000, 1.000000000000000000, 3.073328992872297800E-016 ) ) ;
#9 = DIRECTION ( 'NONE',  ( -0.0000000000000000000, -1.335063993641108300E-015, -1.000000000000000000 ) ) ;
#10 = DIRECTION ( 'NONE',  ( -0.0000000000000000000, -1.335063993641108300E-015, -1.000000000000000000 ) ) ;
#11 = CARTESIAN_POINT ( 'NONE',  ( 0.0000000000000000000, 2.381714719638797000E-017, -0.05866141732283464800 ) ) ;
#12 = DIRECTION ( 'NONE',  ( 0.0000000000000000000, 1.000000000000000000, -1.339827074941437200E-015 ) ) ;
#13 = CARTESIAN_POINT ( 'NONE',  ( 0.0000000000000000000, 0.2499999999999999200, 0.01461066158767311900 ) ) ;
#14 = CARTESIAN_POINT ( 'NONE',  ( 0.0000000000000000000, 1.424833291240126500E-016, 0.02248467733570493400 ) ) ;
#15 = DIRECTION ( 'NONE',  ( -0.0000000000000000000, 3.061515884555943100E-016, -1.000000000000000000 ) ) ;
#16 = CARTESIAN_POINT ( 'NONE',  ( 0.0000000000000000000, 1.424833291240126500E-016, 0.02248467733570493400 ) ) ;
#17 = EDGE_LOOP ( 'NONE', ( #244, #4, #3, #1 ) ) ;
#18 = ORIENTED_EDGE ( 'NONE', *, *, #248, .T. ) ;
#19 = EDGE_LOOP ( 'NONE', ( #49, #50, #47, #6 ) ) ;
#20 = ORIENTED_EDGE ( 'NONE', *, *, #258, .T. ) ;
#21 = CLOSED_SHELL ( 'NONE', ( #173, #169, #171, #172, #170, #177, #174, #175, #176 ) ) ;
#22 = ORIENTED_EDGE ( 'NONE', *, *, #249, .F. ) ;
#23 = EDGE_LOOP ( 'NONE', ( #164, #232, #163, #187 ) ) ;
#24 = FACE_OUTER_BOUND ( 'NONE', #27, .T. ) ;
#25 = EDGE_LOOP ( 'NONE', ( #2, #234, #233 ) ) ;
#26 = EDGE_LOOP ( 'NONE', ( #5, #158 ) ) ;
#27 = EDGE_LOOP ( 'NONE', ( #165, #185, #161, #160 ) ) ;
#28 = EDGE_LOOP ( 'NONE', ( #167, #186, #20, #188 ) ) ;
#29 = EDGE_LOOP ( 'NONE', ( #162, #235, #166, #159 ) ) ;
#30 = EDGE_LOOP ( 'NONE', ( #22, #18, #168 ) ) ;
#31 = DIRECTION ( 'NONE',  ( 1.000000000000000000, 0.0000000000000000000, -0.0000000000000000000 ) ) ;
#32 = PLANE ( 'NONE',  #196 ) ;
#33 = DIRECTION ( 'NONE',  ( -0.0000000000000000000, 3.061515884555943100E-016, -1.000000000000000000 ) ) ;
#34 = DIRECTION ( 'NONE',  ( 0.0000000000000000000, 1.000000000000000000, 3.297953376381733800E-016 ) ) ;
#35 = CARTESIAN_POINT ( 'NONE',  ( 0.0000000000000000000, 8.933840841074255700E-017, -0.7696850393700858100 ) ) ;
#36 = DIRECTION ( 'NONE',  ( 0.0000000000000000000, -1.000000000000000000, 1.331775896911329000E-015 ) ) ;
#37 = CARTESIAN_POINT ( 'NONE',  ( 0.0000000000000000000, 4.466041483136375000E-017, -0.05078740157480281200 ) ) ;
#38 = DIRECTION ( 'NONE',  ( -0.0000000000000000000, 3.061515884555943100E-016, -1.000000000000000000 ) ) ;
#39 = DIRECTION ( 'NONE',  ( 0.0000000000000000000, 1.000000000000000000, 3.073328992872297800E-016 ) ) ;
#40 = CARTESIAN_POINT ( 'NONE',  ( 0.0000000000000000000, 2.381714719638797000E-017, -0.05866141732283464800 ) ) ;
#41 = CARTESIAN_POINT ( 'NONE',  ( 0.0000000000000000000, 2.381714719638798200E-017, -0.05866141732283468300 ) ) ;
#42 = DIRECTION ( 'NONE',  ( 0.0000000000000000000, 1.000000000000000000, 3.297953376381733800E-016 ) ) ;
#43 = DIRECTION ( 'NONE',  ( 0.0000000000000000000, 1.000000000000000000, 3.061515884555943100E-016 ) ) ;
#44 = DIRECTION ( 'NONE',  ( 0.0000000000000000000, 1.335063993641108300E-015, 1.000000000000000000 ) ) ;
#45 = COORDINATED_UNIVERSAL_TIME_OFFSET ( 5, 0, .BEHIND. ) ;
#46 = CONICAL_SURFACE ( 'NONE', #197, 0.2499999999999998900, 0.7853981633974466100 ) ;
#47 = ORIENTED_EDGE ( 'NONE', *, *, #256, .T. ) ;
#48 = VERTEX_POINT ( 'NONE', #13 ) ;
#49 = ORIENTED_EDGE ( 'NONE', *, *, #254, .F. ) ;
#50 = ORIENTED_EDGE ( 'NONE', *, *, #239, .F. ) ;
#51 = DESIGN_CONTEXT ( 'detailed design', #265, 'design' ) ;
#52 = PRODUCT_DEFINITION_SHAPE ( 'NONE', 'NONE',  #212 ) ;
#53 = PRODUCT ( 'TTN023909-E0W', 'TTN023909-E0W', '', ( #263 ) ) ;
#54 = PERSON ( 'UNSPECIFIED', 'UNSPECIFIED', 'UNSPECIFIED', ('UNSPECIFIED'), ('UNSPECIFIED'), ('UNSPECIFIED') ) ;
#55 = CARTESIAN_POINT ( 'NONE',  ( 0.0000000000000000000, -0.2421259842519683800, -0.05866141732283399600 ) ) ;
#56 = CARTESIAN_POINT ( 'NONE',  ( 3.013402556957068700E-017, 0.2421259842519684300, -0.05866141732283464800 ) ) ;
#57 = CARTESIAN_POINT ( 'NONE',  ( 3.013402556957068100E-017, -0.2421259842519682100, 0.02248467733570526000 ) ) ;
#58 = CARTESIAN_POINT ( 'NONE',  ( 0.0000000000000000000, 0.2421259842519684900, 0.02248467733570461100 ) ) ;
#59 = CARTESIAN_POINT ( 'NONE',  ( 0.0000000000000000000, 4.466041483136375000E-017, -0.05078740157480281200 ) ) ;
#60 = DIRECTION ( 'NONE',  ( -0.0000000000000000000, -1.335063993641108300E-015, -1.000000000000000000 ) ) ;
#61 = DIRECTION ( 'NONE',  ( 0.0000000000000000000, 1.000000000000000000, -1.331775896911329000E-015 ) ) ;
#62 = CARTESIAN_POINT ( 'NONE',  ( 0.0000000000000000000, -1.135395832586564000E-016, 0.05866141732283485000 ) ) ;
#63 = CARTESIAN_POINT ( 'NONE',  ( 0.0000000000000000000, 3.414809992080382000E-017, -0.05866141732283432200 ) ) ;
#64 = DIRECTION ( 'NONE',  ( -0.0000000000000000000, -1.335063993641108300E-015, -1.000000000000000000 ) ) ;
#65 = DIRECTION ( 'NONE',  ( 0.0000000000000000000, 1.000000000000000000, -1.339827074941437000E-015 ) ) ;
#66 = CARTESIAN_POINT ( 'NONE',  ( 3.061616997868380600E-017, -0.2499999999999996700, 0.01461066158767378500 ) ) ;
#67 = CARTESIAN_POINT ( 'NONE',  ( 0.0000000000000000000, 1.424833291240126500E-016, 0.02248467733570493400 ) ) ;
#68 = DIRECTION ( 'NONE',  ( -0.0000000000000000000, -1.335063993641108300E-015, -1.000000000000000000 ) ) ;
#69 = CARTESIAN_POINT ( 'NONE',  ( 2.965188116045755000E-017, -0.2421259842519682100, 0.02248467733570526000 ) ) ;
#70 = DIRECTION ( 'NONE',  ( 8.659560562354911900E-017, -0.7071067811865469100, -0.7071067811865479100 ) ) ;
#71 = DIRECTION ( 'NONE',  ( 0.0000000000000000000, 0.7071067811865450200, -0.7071067811865500200 ) ) ;
#72 = CARTESIAN_POINT ( 'NONE',  ( 0.0000000000000000000, 8.933840841074255700E-017, -0.7696850393700858100 ) ) ;
#73 = DIRECTION ( 'NONE',  ( 1.000000000000000000, 1.224646799147353200E-016, 3.749275628560213600E-032 ) ) ;
#74 = DIRECTION ( 'NONE',  ( -1.224646799147353200E-016, 1.000000000000000000, 0.0000000000000000000 ) ) ;
#75 = CARTESIAN_POINT ( 'NONE',  ( 3.061616997868381800E-017, 0.2499999999999999200, -0.05078740157480314500 ) ) ;
#76 = CARTESIAN_POINT ( 'NONE',  ( 0.0000000000000000000, 0.2421259842519684900, 0.02248467733570461100 ) ) ;
#77 = CARTESIAN_POINT ( 'NONE',  ( 0.0000000000000000000, 8.933840841074255700E-017, -0.7696850393700858100 ) ) ;
#78 = DIRECTION ( 'NONE',  ( -1.000000000000000000, 0.0000000000000000000, 0.0000000000000000000 ) ) ;
#79 = DIRECTION ( 'NONE',  ( 0.0000000000000000000, 0.0000000000000000000, 1.000000000000000000 ) ) ;
#80 = LOCAL_TIME ( 10, 50, 52.00000000000000000, #45 ) ;
#81 = CALENDAR_DATE ( 2014, 22, 4 ) ;
#82 = DATE_AND_TIME ( #81, #80 ) ;
#83 = APPROVAL_DATE_TIME ( #82, #213 ) ;
#84 = PERSON_AND_ORGANIZATION ( #54, #300 ) ;
#85 = COORDINATED_UNIVERSAL_TIME_OFFSET ( 5, 0, .BEHIND. ) ;
#86 = LOCAL_TIME ( 10, 50, 52.00000000000000000, #85 ) ;
#87 = CALENDAR_DATE ( 2014, 22, 4 ) ;
#88 = DATE_AND_TIME ( #87, #86 ) ;
#89 = PERSON_AND_ORGANIZATION ( #54, #300 ) ;
#90 = APPROVAL_PERSON_ORGANIZATION ( #89, #218, #272 ) ;
#91 = COORDINATED_UNIVERSAL_TIME_OFFSET ( 5, 0, .BEHIND. ) ;
#92 = LOCAL_TIME ( 10, 50, 52.00000000000000000, #91 ) ;
#93 = CALENDAR_DATE ( 2014, 22, 4 ) ;
#94 = DATE_AND_TIME ( #93, #92 ) ;
#95 = APPROVAL_DATE_TIME ( #94, #218 ) ;
#96 = PERSON_AND_ORGANIZATION ( #54, #300 ) ;
#97 = PERSON_AND_ORGANIZATION ( #54, #300 ) ;
#98 = PERSON_AND_ORGANIZATION ( #54, #300 ) ;
#99 = COORDINATED_UNIVERSAL_TIME_OFFSET ( 5, 0, .BEHIND. ) ;
#100 = LOCAL_TIME ( 10, 50, 52.00000000000000000, #99 ) ;
#101 = CALENDAR_DATE ( 2014, 22, 4 ) ;
#102 = DATE_AND_TIME ( #101, #100 ) ;
#103 = PERSON_AND_ORGANIZATION ( #54, #300 ) ;
#104 = APPROVAL_PERSON_ORGANIZATION ( #103, #225, #279 ) ;
#105 = COORDINATED_UNIVERSAL_TIME_OFFSET ( 5, 0, .BEHIND. ) ;
#106 = LOCAL_TIME ( 10, 50, 52.00000000000000000, #105 ) ;
#107 = CALENDAR_DATE ( 2014, 22, 4 ) ;
#108 = DATE_AND_TIME ( #107, #106 ) ;
#109 = APPROVAL_DATE_TIME ( #108, #225 ) ;
#110 = CONICAL_SURFACE ( 'NONE', #240, 0.2421259842519683500, 0.7853981633974461700 ) ;
#111 = FACE_OUTER_BOUND ( 'NONE', #30, .T. ) ;
#112 = CYLINDRICAL_SURFACE ( 'NONE', #194, 0.2499999999999998900 ) ;
#113 = CYLINDRICAL_SURFACE ( 'NONE', #192, 0.2499999999999998900 ) ;
#114 = FACE_OUTER_BOUND ( 'NONE', #19, .T. ) ;
#115 = FACE_OUTER_BOUND ( 'NONE', #17, .T. ) ;
#116 = SPHERICAL_SURFACE ( 'NONE', #193, 0.8283464566929206200 ) ;
#117 = CONICAL_SURFACE ( 'NONE', #191, 0.2499999999999998900, 0.7853981633974466100 ) ;
#118 = LINE ( 'NONE', #69, #281 ) ;
#119 = FACE_OUTER_BOUND ( 'NONE', #26, .T. ) ;
#120 = FACE_OUTER_BOUND ( 'NONE', #25, .T. ) ;
#121 = CIRCLE ( 'NONE', #199, 0.2499999999999998900 ) ;
#122 = SPHERICAL_SURFACE ( 'NONE', #198, 0.8283464566929206200 ) ;
#123 = CIRCLE ( 'NONE', #201, 0.2421259842519683500 ) ;
#124 = CONICAL_SURFACE ( 'NONE', #195, 0.2421259842519683500, 0.7853981633974461700 ) ;
#125 = CIRCLE ( 'NONE', #200, 0.2421259842519684100 ) ;
#126 = PERSON_AND_ORGANIZATION ( #54, #300 ) ;
#127 = APPROVAL_PERSON_ORGANIZATION ( #126, #213, #268 ) ;
#128 = DIRECTION ( 'NONE',  ( 0.0000000000000000000, 1.335063993641108300E-015, 1.000000000000000000 ) ) ;
#129 = DIRECTION ( 'NONE',  ( 0.0000000000000000000, -1.000000000000000000, 1.331775896911329000E-015 ) ) ;
#130 = CARTESIAN_POINT ( 'NONE',  ( 0.0000000000000000000, 1.424833291240126500E-016, 0.02248467733570493400 ) ) ;
#131 = DIRECTION ( 'NONE',  ( -0.0000000000000000000, -1.335063993641108300E-015, -1.000000000000000000 ) ) ;
#132 = DIRECTION ( 'NONE',  ( 0.0000000000000000000, 1.000000000000000000, -1.339827074941437200E-015 ) ) ;
#133 = DIRECTION ( 'NONE',  ( 8.659560562354918100E-017, 0.7071067811865473500, 0.7071067811865476800 ) ) ;
#134 = DIRECTION ( 'NONE',  ( 0.0000000000000000000, -0.7071067811865453500, 0.7071067811865496800 ) ) ;
#135 = CARTESIAN_POINT ( 'NONE',  ( 0.0000000000000000000, 1.319710142134527700E-016, 0.01461066158767345200 ) ) ;
#136 = DIRECTION ( 'NONE',  ( -0.0000000000000000000, -1.335063993641108300E-015, -1.000000000000000000 ) ) ;
#137 = DIRECTION ( 'NONE',  ( 0.0000000000000000000, 1.000000000000000000, -1.331775896911329400E-015 ) ) ;
#138 = CARTESIAN_POINT ( 'NONE',  ( 0.0000000000000000000, -0.2499999999999998600, -0.05078740157480247900 ) ) ;
#139 = CARTESIAN_POINT ( 'NONE',  ( 0.0000000000000000000, 3.414809992080382000E-017, -0.05866141732283432200 ) ) ;
#140 = DIRECTION ( 'NONE',  ( -0.0000000000000000000, -1.335063993641108300E-015, -1.000000000000000000 ) ) ;
#141 = DIRECTION ( 'NONE',  ( 0.0000000000000000000, 1.000000000000000000, -1.339827074941437000E-015 ) ) ;
#142 = CARTESIAN_POINT ( 'NONE',  ( 0.0000000000000000000, 4.466041483136375000E-017, -0.05078740157480281200 ) ) ;
#143 = DIRECTION ( 'NONE',  ( -0.0000000000000000000, -1.335063993641108300E-015, -1.000000000000000000 ) ) ;
#144 = DIRECTION ( 'NONE',  ( 0.0000000000000000000, 1.000000000000000000, -1.331775896911329000E-015 ) ) ;
#145 = CARTESIAN_POINT ( 'NONE',  ( 3.061616997868381800E-017, -0.2499999999999998600, -0.05866141732283472500 ) ) ;
#146 = DIRECTION ( 'NONE',  ( -0.0000000000000000000, 3.061515884555943100E-016, -1.000000000000000000 ) ) ;
#147 = CARTESIAN_POINT ( 'NONE',  ( 0.0000000000000000000, 0.2499999999999999200, -0.05866141732283457200 ) ) ;
#148 = DIRECTION ( 'NONE',  ( 0.0000000000000000000, 0.0000000000000000000, 1.000000000000000000 ) ) ;
#149 = DIRECTION ( 'NONE',  ( -0.0000000000000000000, 3.061515884555943100E-016, -1.000000000000000000 ) ) ;
#150 = CARTESIAN_POINT ( 'NONE',  ( 0.0000000000000000000, 0.0000000000000000000, 0.0000000000000000000 ) ) ;
#151 = CARTESIAN_POINT ( 'NONE',  ( 0.0000000000000000000, 1.319710142134527700E-016, 0.01461066158767345200 ) ) ;
#152 = DIRECTION ( 'NONE',  ( -0.0000000000000000000, -1.335063993641108300E-015, -1.000000000000000000 ) ) ;
#153 = DIRECTION ( 'NONE',  ( 0.0000000000000000000, 1.000000000000000000, -1.331775896911329400E-015 ) ) ;
#154 =( LENGTH_UNIT ( ) NAMED_UNIT ( * ) SI_UNIT ( $, .METRE. ) );
#155 =( CONVERSION_BASED_UNIT ( 'INCH', #298 ) LENGTH_UNIT ( ) NAMED_UNIT ( #178 ) );
#156 =( NAMED_UNIT ( * ) PLANE_ANGLE_UNIT ( ) SI_UNIT ( $, .RADIAN. ) );
#157 =( NAMED_UNIT ( * ) SI_UNIT ( $, .STERADIAN. ) SOLID_ANGLE_UNIT ( ) );
#158 = ORIENTED_EDGE ( 'NONE', *, *, #253, .T. ) ;
#159 = ORIENTED_EDGE ( 'NONE', *, *, #256, .F. ) ;
#160 = ORIENTED_EDGE ( 'NONE', *, *, #250, .F. ) ;
#161 = ORIENTED_EDGE ( 'NONE', *, *, #252, .F. ) ;
#162 = ORIENTED_EDGE ( 'NONE', *, *, #253, .F. ) ;
#163 = ORIENTED_EDGE ( 'NONE', *, *, #255, .F. ) ;
#164 = ORIENTED_EDGE ( 'NONE', *, *, #252, .T. ) ;
#165 = ORIENTED_EDGE ( 'NONE', *, *, #251, .T. ) ;
#166 = ORIENTED_EDGE ( 'NONE', *, *, #255, .T. ) ;
#167 = ORIENTED_EDGE ( 'NONE', *, *, #257, .F. ) ;
#168 = ORIENTED_EDGE ( 'NONE', *, *, #251, .F. ) ;
#169 = ADVANCED_FACE ( 'NONE', ( #24 ), #110, .T. ) ;
#170 = ADVANCED_FACE ( 'NONE', ( #229 ), #113, .T. ) ;
#171 = ADVANCED_FACE ( 'NONE', ( #230 ), #117, .T. ) ;
#172 = ADVANCED_FACE ( 'NONE', ( #231 ), #112, .T. ) ;
#173 = ADVANCED_FACE ( 'NONE', ( #111 ), #116, .T. ) ;
#174 = ADVANCED_FACE ( 'NONE', ( #119 ), #32, .T. ) ;
#175 = ADVANCED_FACE ( 'NONE', ( #115 ), #124, .T. ) ;
#176 = ADVANCED_FACE ( 'NONE', ( #120 ), #122, .T. ) ;
#177 = ADVANCED_FACE ( 'NONE', ( #114 ), #46, .T. ) ;
#178 = DIMENSIONAL_EXPONENTS ( 1.000000000000000000, 0.0000000000000000000, 0.0000000000000000000, 0.0000000000000000000, 0.0000000000000000000, 0.0000000000000000000, 0.0000000000000000000 ) ;
#179 = CARTESIAN_POINT ( 'NONE',  ( 0.0000000000000000000, 8.933840841074255700E-017, -0.7696850393700858100 ) ) ;
#180 = CARTESIAN_POINT ( 'NONE',  ( 0.0000000000000000000, 0.2499999999999999200, -0.05078740157480314500 ) ) ;
#181 = VERTEX_POINT ( 'NONE', #190 ) ;
#182 = VERTEX_POINT ( 'NONE', #180 ) ;
#183 = VERTEX_POINT ( 'NONE', #55 ) ;
#184 = VERTEX_POINT ( 'NONE', #56 ) ;
#185 = ORIENTED_EDGE ( 'NONE', *, *, #247, .T. ) ;
#186 = ORIENTED_EDGE ( 'NONE', *, *, #259, .T. ) ;
#187 = ORIENTED_EDGE ( 'NONE', *, *, #258, .F. ) ;
#188 = ORIENTED_EDGE ( 'NONE', *, *, #238, .F. ) ;
#189 = DIRECTION ( 'NONE',  ( 1.000000000000000000, 0.0000000000000000000, -0.0000000000000000000 ) ) ;
#190 = CARTESIAN_POINT ( 'NONE',  ( 3.061616997868381800E-017, -0.2499999999999998600, -0.05078740157480247900 ) ) ;
#191 = AXIS2_PLACEMENT_3D ( 'NONE', #37, #44, #36 ) ;
#192 = AXIS2_PLACEMENT_3D ( 'NONE', #11, #15, #8 ) ;
#193 = AXIS2_PLACEMENT_3D ( 'NONE', #35, #31, #42 ) ;
#194 = AXIS2_PLACEMENT_3D ( 'NONE', #40, #38, #39 ) ;
#195 = AXIS2_PLACEMENT_3D ( 'NONE', #16, #9, #7 ) ;
#196 = AXIS2_PLACEMENT_3D ( 'NONE', #41, #33, #43 ) ;
#197 = AXIS2_PLACEMENT_3D ( 'NONE', #237, #128, #129 ) ;
#198 = AXIS2_PLACEMENT_3D ( 'NONE', #179, #189, #34 ) ;
#199 = AXIS2_PLACEMENT_3D ( 'NONE', #59, #60, #61 ) ;
#200 = AXIS2_PLACEMENT_3D ( 'NONE', #63, #64, #65 ) ;
#201 = AXIS2_PLACEMENT_3D ( 'NONE', #67, #68, #236 ) ;
#202 = AXIS2_PLACEMENT_3D ( 'NONE', #72, #73, #74 ) ;
#203 = AXIS2_PLACEMENT_3D ( 'NONE', #77, #78, #79 ) ;
#204 = AXIS2_PLACEMENT_3D ( 'NONE', #130, #131, #132 ) ;
#205 = AXIS2_PLACEMENT_3D ( 'NONE', #135, #136, #137 ) ;
#206 = AXIS2_PLACEMENT_3D ( 'NONE', #139, #140, #141 ) ;
#207 = AXIS2_PLACEMENT_3D ( 'NONE', #142, #143, #144 ) ;
#208 = AXIS2_PLACEMENT_3D ( 'NONE', #151, #152, #153 ) ;
#209 =( GEOMETRIC_REPRESENTATION_CONTEXT ( 3 ) GLOBAL_UNCERTAINTY_ASSIGNED_CONTEXT ( ( #302 ) ) GLOBAL_UNIT_ASSIGNED_CONTEXT ( ( #155, #156, #157 ) ) REPRESENTATION_CONTEXT ( 'NONE', 'WORKASPACE' ) );
#210 = AXIS2_PLACEMENT_3D ( 'NONE', #150, #148, #262 ) ;
#211 = CC_DESIGN_PERSON_AND_ORGANIZATION_ASSIGNMENT ( #301, #264, ( #53 ) ) ;
#212 = PRODUCT_DEFINITION ( 'UNKNOWN', '', #217, #51 ) ;
#213 = APPROVAL ( #267, 'UNSPECIFIED' ) ;
#214 = CC_DESIGN_APPROVAL ( #213, ( #212 ) ) ;
#215 = CC_DESIGN_PERSON_AND_ORGANIZATION_ASSIGNMENT ( #84, #269, ( #212 ) ) ;
#216 = CC_DESIGN_DATE_AND_TIME_ASSIGNMENT ( #88, #270, ( #212 ) ) ;
#217 = PRODUCT_DEFINITION_FORMATION_WITH_SPECIFIED_SOURCE ( 'ANY', '', #53, .NOT_KNOWN. ) ;
#218 = APPROVAL ( #271, 'UNSPECIFIED' ) ;
#219 = CC_DESIGN_APPROVAL ( #218, ( #217 ) ) ;
#220 = CC_DESIGN_PERSON_AND_ORGANIZATION_ASSIGNMENT ( #96, #273, ( #217 ) ) ;
#221 = CC_DESIGN_PERSON_AND_ORGANIZATION_ASSIGNMENT ( #97, #274, ( #217 ) ) ;
#222 = SECURITY_CLASSIFICATION ( '', '', #275 ) ;
#223 = CC_DESIGN_PERSON_AND_ORGANIZATION_ASSIGNMENT ( #98, #276, ( #222 ) ) ;
#224 = CC_DESIGN_DATE_AND_TIME_ASSIGNMENT ( #102, #277, ( #222 ) ) ;
#225 = APPROVAL ( #278, 'UNSPECIFIED' ) ;
#226 = CC_DESIGN_APPROVAL ( #225, ( #222 ) ) ;
#227 = CC_DESIGN_SECURITY_CLASSIFICATION ( #222, ( #217 ) ) ;
#228 = PRODUCT_RELATED_PRODUCT_CATEGORY ( 'detail', '', ( #53 ) ) ;
#229 = FACE_OUTER_BOUND ( 'NONE', #28, .T. ) ;
#230 = FACE_OUTER_BOUND ( 'NONE', #29, .T. ) ;
#231 = FACE_OUTER_BOUND ( 'NONE', #23, .T. ) ;
#232 = ORIENTED_EDGE ( 'NONE', *, *, #257, .T. ) ;
#233 = ORIENTED_EDGE ( 'NONE', *, *, #241, .F. ) ;
#234 = ORIENTED_EDGE ( 'NONE', *, *, #249, .T. ) ;
#235 = ORIENTED_EDGE ( 'NONE', *, *, #254, .T. ) ;
#236 = DIRECTION ( 'NONE',  ( 0.0000000000000000000, 1.000000000000000000, -1.339827074941437200E-015 ) ) ;
#237 = CARTESIAN_POINT ( 'NONE',  ( 0.0000000000000000000, 4.466041483136375000E-017, -0.05078740157480281200 ) ) ;
#238 = EDGE_CURVE ( 'NONE', #181, #182, #121, .T. ) ;
#239 = EDGE_CURVE ( 'NONE', #183, #184, #125, .T. ) ;
#240 = AXIS2_PLACEMENT_3D ( 'NONE', #14, #10, #12 ) ;
#241 = EDGE_CURVE ( 'NONE', #242, #245, #123, .T. ) ;
#242 = VERTEX_POINT ( 'NONE', #57 ) ;
#243 = VERTEX_POINT ( 'NONE', #62 ) ;
#244 = ORIENTED_EDGE ( 'NONE', *, *, #247, .F. ) ;
#245 = VERTEX_POINT ( 'NONE', #58 ) ;
#246 = VERTEX_POINT ( 'NONE', #66 ) ;
#247 = EDGE_CURVE ( 'NONE', #242, #246, #118, .T. ) ;
#248 = EDGE_CURVE ( 'NONE', #243, #242, #280, .T. ) ;
#249 = EDGE_CURVE ( 'NONE', #243, #245, #284, .T. ) ;
#250 = EDGE_CURVE ( 'NONE', #245, #48, #282, .T. ) ;
#251 = EDGE_CURVE ( 'NONE', #245, #242, #285, .T. ) ;
#252 = EDGE_CURVE ( 'NONE', #48, #246, #287, .T. ) ;
#253 = EDGE_CURVE ( 'NONE', #184, #183, #283, .T. ) ;
#254 = EDGE_CURVE ( 'NONE', #184, #182, #289, .T. ) ;
#255 = EDGE_CURVE ( 'NONE', #182, #181, #288, .T. ) ;
#256 = EDGE_CURVE ( 'NONE', #183, #181, #292, .T. ) ;
#257 = EDGE_CURVE ( 'NONE', #246, #181, #293, .T. ) ;
#258 = EDGE_CURVE ( 'NONE', #48, #182, #295, .T. ) ;
#259 = EDGE_CURVE ( 'NONE', #246, #48, #290, .T. ) ;
#260 = APPLICATION_PROTOCOL_DEFINITION ( 'international standard', 'config_control_design', 1994, #261 ) ;
#261 = APPLICATION_CONTEXT ( 'configuration controlled 3d designs of mechanical parts and assemblies' ) ;
#262 = DIRECTION ( 'NONE',  ( 1.000000000000000000, 0.0000000000000000000, 0.0000000000000000000 ) ) ;
#263 = MECHANICAL_CONTEXT ( 'NONE', #261, 'mechanical' ) ;
#264 = PERSON_AND_ORGANIZATION_ROLE ( 'design_owner' ) ;
#265 = APPLICATION_CONTEXT ( 'configuration controlled 3d designs of mechanical parts and assemblies' ) ;
#266 = APPLICATION_PROTOCOL_DEFINITION ( 'international standard', 'config_control_design', 1994, #265 ) ;
#267 = APPROVAL_STATUS ( 'not_yet_approved' ) ;
#268 = APPROVAL_ROLE ( '' ) ;
#269 = PERSON_AND_ORGANIZATION_ROLE ( 'creator' ) ;
#270 = DATE_TIME_ROLE ( 'creation_date' ) ;
#271 = APPROVAL_STATUS ( 'not_yet_approved' ) ;
#272 = APPROVAL_ROLE ( '' ) ;
#273 = PERSON_AND_ORGANIZATION_ROLE ( 'creator' ) ;
#274 = PERSON_AND_ORGANIZATION_ROLE ( 'design_supplier' ) ;
#275 = SECURITY_CLASSIFICATION_LEVEL ( 'unclassified' ) ;
#276 = PERSON_AND_ORGANIZATION_ROLE ( 'classification_officer' ) ;
#277 = DATE_TIME_ROLE ( 'classification_date' ) ;
#278 = APPROVAL_STATUS ( 'not_yet_approved' ) ;
#279 = APPROVAL_ROLE ( '' ) ;
#280 = CIRCLE ( 'NONE', #202, 0.8283464566929206200 ) ;
#281 = VECTOR ( 'NONE', #70, 39.37007874015748900 ) ;
#282 = LINE ( 'NONE', #76, #286 ) ;
#283 = CIRCLE ( 'NONE', #206, 0.2421259842519684100 ) ;
#284 = CIRCLE ( 'NONE', #203, 0.8283464566929206200 ) ;
#285 = CIRCLE ( 'NONE', #204, 0.2421259842519683500 ) ;
#286 = VECTOR ( 'NONE', #71, 39.37007874015748100 ) ;
#287 = CIRCLE ( 'NONE', #205, 0.2499999999999998100 ) ;
#288 = CIRCLE ( 'NONE', #207, 0.2499999999999998900 ) ;
#289 = LINE ( 'NONE', #75, #291 ) ;
#290 = CIRCLE ( 'NONE', #208, 0.2499999999999998100 ) ;
#291 = VECTOR ( 'NONE', #133, 39.37007874015748100 ) ;
#292 = LINE ( 'NONE', #138, #294 ) ;
#293 = LINE ( 'NONE', #145, #296 ) ;
#294 = VECTOR ( 'NONE', #134, 39.37007874015748100 ) ;
#295 = LINE ( 'NONE', #147, #297 ) ;
#296 = VECTOR ( 'NONE', #146, 39.37007874015748100 ) ;
#297 = VECTOR ( 'NONE', #149, 39.37007874015748100 ) ;
#298 = LENGTH_MEASURE_WITH_UNIT ( LENGTH_MEASURE( 0.02539999999999999900 ), #154 );
#299 = SHAPE_DEFINITION_REPRESENTATION ( #52, #303 ) ;
#300 = ORGANIZATION ( 'UNSPECIFIED', 'UNSPECIFIED', '' ) ;
#301 = PERSON_AND_ORGANIZATION ( #54, #300 ) ;
#302 = UNCERTAINTY_MEASURE_WITH_UNIT (LENGTH_MEASURE( 1.000000000000000100E-005 ), #155, 'distance_accuracy_value', 'NONE');
#303 = ADVANCED_BREP_SHAPE_REPRESENTATION ( 'TTN023909-E0W', ( #304, #210 ), #209 ) ;
#304 = MANIFOLD_SOLID_BREP ( 'TTN023921-1-solid1', #21 ) ;
ENDSEC;
END-ISO-10303-21;
