ISO-10303-21;
HEADER;
FILE_DESCRIPTION (( 'STEP AP203' ),
    '1' );
FILE_NAME ('Web Model 68739_63215.step',
    '2017-03-06T19:11:02',
    ( '' ),
    ( '' ),
    'SwSTEP 2.0',
    'SolidWorks 2016',
    '' );
FILE_SCHEMA (( 'CONFIG_CONTROL_DESIGN' ));
ENDSEC;

DATA;
#1 = DIRECTION ( 'NONE',  ( 0.0000000000000000000, 0.0000000000000000000, 1.000000000000000000 ) ) ;
#2 = PRODUCT_DEFINITION_SHAPE ( 'NONE', 'NONE',  #38 ) ;
#3 = AXIS2_PLACEMENT_3D ( 'NONE', #6, #57, #131 ) ;
#4 = CARTESIAN_POINT ( 'NONE',  ( 4.000000000000000000, 0.0000000000000000000, 0.0000000000000000000 ) ) ;
#5 = PRODUCT ( 'Web Model 68739_63215', 'Web Model 68739_63215', '', ( #132 ) ) ;
#6 = CARTESIAN_POINT ( 'NONE',  ( 0.0000000000000000000, 0.0000000000000000000, 0.0000000000000000000 ) ) ;
#7 = PRODUCT_DEFINITION_FORMATION_WITH_SPECIFIED_SOURCE ( 'ANY', '', #5, .NOT_KNOWN. ) ;
#8 = DIRECTION ( 'NONE',  ( 0.0000000000000000000, 0.0000000000000000000, -1.000000000000000000 ) ) ;
#9 = EDGE_CURVE ( 'NONE', #33, #105, #93, .T. ) ;
#10 = CIRCLE ( 'NONE', #3, 20.00000000000000000 ) ;
#11 = ORIENTED_EDGE ( 'NONE', *, *, #155, .F. ) ;
#12 = APPROVAL_DATE_TIME ( #175, #75 ) ;
#13 = ADVANCED_BREP_SHAPE_REPRESENTATION ( 'Web Model 68739_63215', ( #153, #140 ), #115 ) ;
#14 = CLOSED_SHELL ( 'NONE', ( #17, #55, #144, #156 ) ) ;
#15 = ORIENTED_EDGE ( 'NONE', *, *, #82, .F. ) ;
#16 = CARTESIAN_POINT ( 'NONE',  ( 4.000000000000000000, 0.0000000000000000000, 0.0000000000000000000 ) ) ;
#17 = ADVANCED_FACE ( 'NONE', ( #126 ), #81, .T. ) ;
#18 = PERSON_AND_ORGANIZATION_ROLE ( 'design_owner' ) ;
#19 = CC_DESIGN_DATE_AND_TIME_ASSIGNMENT ( #58, #24, ( #38 ) ) ;
#20 = DIRECTION ( 'NONE',  ( 0.0000000000000000000, 0.0000000000000000000, 1.000000000000000000 ) ) ;
#21 = PERSON ( 'UNSPECIFIED', 'UNSPECIFIED', 'UNSPECIFIED', ('UNSPECIFIED'), ('UNSPECIFIED'), ('UNSPECIFIED') ) ;
#22 = EDGE_LOOP ( 'NONE', ( #171, #11, #52, #141 ) ) ;
#23 = CARTESIAN_POINT ( 'NONE',  ( 4.000000000000000000, 0.0000000000000000000, 20.00000000000000000 ) ) ;
#24 = DATE_TIME_ROLE ( 'creation_date' ) ;
#25 = DIRECTION ( 'NONE',  ( -1.000000000000000000, -0.0000000000000000000, -0.0000000000000000000 ) ) ;
#26 = AXIS2_PLACEMENT_3D ( 'NONE', #4, #125, #90 ) ;
#27 = FACE_OUTER_BOUND ( 'NONE', #22, .T. ) ;
#28 = APPROVAL_STATUS ( 'not_yet_approved' ) ;
#29 = CC_DESIGN_PERSON_AND_ORGANIZATION_ASSIGNMENT ( #60, #110, ( #44 ) ) ;
#30 = CALENDAR_DATE ( 2017, 6, 3 ) ;
#31 = AXIS2_PLACEMENT_3D ( 'NONE', #69, #128, #51 ) ;
#32 = PLANE ( 'NONE',  #151 ) ;
#33 = VERTEX_POINT ( 'NONE', #137 ) ;
#34 = CIRCLE ( 'NONE', #158, 20.00000000000000000 ) ;
#35 = ORIENTED_EDGE ( 'NONE', *, *, #163, .F. ) ;
#36 = LOCAL_TIME ( 14, 11, 2.000000000000000000, #147 ) ;
#37 = CC_DESIGN_PERSON_AND_ORGANIZATION_ASSIGNMENT ( #109, #174, ( #7 ) ) ;
#38 = PRODUCT_DEFINITION ( 'UNKNOWN', '', #7, #119 ) ;
#39 = LINE ( 'NONE', #23, #102 ) ;
#40 = VERTEX_POINT ( 'NONE', #48 ) ;
#41 = CALENDAR_DATE ( 2017, 6, 3 ) ;
#42 = CC_DESIGN_PERSON_AND_ORGANIZATION_ASSIGNMENT ( #124, #18, ( #5 ) ) ;
#43 = APPLICATION_PROTOCOL_DEFINITION ( 'international standard', 'config_control_design', 1994, #95 ) ;
#44 = SECURITY_CLASSIFICATION ( '', '', #99 ) ;
#45 = COORDINATED_UNIVERSAL_TIME_OFFSET ( 5, 0, .BEHIND. ) ;
#46 = PRODUCT_RELATED_PRODUCT_CATEGORY ( 'detail', '', ( #5 ) ) ;
#47 = CARTESIAN_POINT ( 'NONE',  ( 0.0000000000000000000, 0.0000000000000000000, 20.00000000000000000 ) ) ;
#48 = CARTESIAN_POINT ( 'NONE',  ( 4.000000000000000000, 0.0000000000000000000, 20.00000000000000000 ) ) ;
#49 = APPROVAL_DATE_TIME ( #164, #56 ) ;
#50 = CARTESIAN_POINT ( 'NONE',  ( 0.0000000000000000000, 2.449293598294706500E-015, -20.00000000000000000 ) ) ;
#51 = DIRECTION ( 'NONE',  ( 0.0000000000000000000, 0.0000000000000000000, -1.000000000000000000 ) ) ;
#52 = ORIENTED_EDGE ( 'NONE', *, *, #82, .T. ) ;
#53 =( NAMED_UNIT ( * ) SI_UNIT ( $, .STERADIAN. ) SOLID_ANGLE_UNIT ( ) );
#54 = CC_DESIGN_PERSON_AND_ORGANIZATION_ASSIGNMENT ( #172, #87, ( #7 ) ) ;
#55 = ADVANCED_FACE ( 'NONE', ( #27 ), #64, .T. ) ;
#56 = APPROVAL ( #134, 'UNSPECIFIED' ) ;
#57 = DIRECTION ( 'NONE',  ( 1.000000000000000000, 0.0000000000000000000, 0.0000000000000000000 ) ) ;
#58 = DATE_AND_TIME ( #41, #71 ) ;
#59 = APPROVAL_ROLE ( '' ) ;
#60 = PERSON_AND_ORGANIZATION ( #21, #168 ) ;
#61 = AXIS2_PLACEMENT_3D ( 'NONE', #165, #92, #20 ) ;
#62 = VECTOR ( 'NONE', #25, 1000.000000000000000 ) ;
#63 = UNCERTAINTY_MEASURE_WITH_UNIT (LENGTH_MEASURE( 1.000000000000000100E-005 ), #133, 'distance_accuracy_value', 'NONE');
#64 = CYLINDRICAL_SURFACE ( 'NONE', #61, 20.00000000000000000 ) ;
#65 = DIRECTION ( 'NONE',  ( -1.000000000000000000, -0.0000000000000000000, -0.0000000000000000000 ) ) ;
#66 = ORIENTED_EDGE ( 'NONE', *, *, #129, .F. ) ;
#67 = CC_DESIGN_DATE_AND_TIME_ASSIGNMENT ( #123, #118, ( #44 ) ) ;
#68 = ORIENTED_EDGE ( 'NONE', *, *, #83, .F. ) ;
#69 = CARTESIAN_POINT ( 'NONE',  ( 4.000000000000000000, 0.0000000000000000000, 0.0000000000000000000 ) ) ;
#70 = CC_DESIGN_SECURITY_CLASSIFICATION ( #44, ( #7 ) ) ;
#71 = LOCAL_TIME ( 14, 11, 2.000000000000000000, #45 ) ;
#72 = CALENDAR_DATE ( 2017, 6, 3 ) ;
#73 = DIRECTION ( 'NONE',  ( 0.0000000000000000000, 0.0000000000000000000, -1.000000000000000000 ) ) ;
#74 = CARTESIAN_POINT ( 'NONE',  ( 4.000000000000000000, 0.0000000000000000000, 0.0000000000000000000 ) ) ;
#75 = APPROVAL ( #28, 'UNSPECIFIED' ) ;
#76 = DATE_AND_TIME ( #72, #148 ) ;
#77 = EDGE_LOOP ( 'NONE', ( #66, #68 ) ) ;
#78 = FACE_OUTER_BOUND ( 'NONE', #112, .T. ) ;
#79 = CC_DESIGN_APPROVAL ( #75, ( #44 ) ) ;
#80 = DIRECTION ( 'NONE',  ( 1.000000000000000000, 0.0000000000000000000, 0.0000000000000000000 ) ) ;
#81 = CYLINDRICAL_SURFACE ( 'NONE', #26, 20.00000000000000000 ) ;
#82 = EDGE_CURVE ( 'NONE', #40, #143, #39, .T. ) ;
#83 = EDGE_CURVE ( 'NONE', #105, #143, #34, .T. ) ;
#84 = APPROVAL_PERSON_ORGANIZATION ( #106, #75, #104 ) ;
#85 = DIRECTION ( 'NONE',  ( 1.000000000000000000, 0.0000000000000000000, 0.0000000000000000000 ) ) ;
#86 = COORDINATED_UNIVERSAL_TIME_OFFSET ( 5, 0, .BEHIND. ) ;
#87 = PERSON_AND_ORGANIZATION_ROLE ( 'creator' ) ;
#88 = ORIENTED_EDGE ( 'NONE', *, *, #9, .T. ) ;
#89 = CALENDAR_DATE ( 2017, 6, 3 ) ;
#90 = DIRECTION ( 'NONE',  ( 0.0000000000000000000, 0.0000000000000000000, 1.000000000000000000 ) ) ;
#91 = APPROVAL_PERSON_ORGANIZATION ( #139, #56, #59 ) ;
#92 = DIRECTION ( 'NONE',  ( -1.000000000000000000, -0.0000000000000000000, -0.0000000000000000000 ) ) ;
#93 = LINE ( 'NONE', #127, #62 ) ;
#94 = ORIENTED_EDGE ( 'NONE', *, *, #163, .T. ) ;
#95 = APPLICATION_CONTEXT ( 'configuration controlled 3d designs of mechanical parts and assemblies' ) ;
#96 = APPROVAL_PERSON_ORGANIZATION ( #100, #160, #167 ) ;
#97 = AXIS2_PLACEMENT_3D ( 'NONE', #74, #107, #73 ) ;
#98 = DIRECTION ( 'NONE',  ( 0.0000000000000000000, 0.0000000000000000000, -1.000000000000000000 ) ) ;
#99 = SECURITY_CLASSIFICATION_LEVEL ( 'unclassified' ) ;
#100 = PERSON_AND_ORGANIZATION ( #21, #168 ) ;
#101 = CIRCLE ( 'NONE', #97, 20.00000000000000000 ) ;
#102 = VECTOR ( 'NONE', #65, 1000.000000000000000 ) ;
#103 = APPROVAL_STATUS ( 'not_yet_approved' ) ;
#104 = APPROVAL_ROLE ( '' ) ;
#105 = VERTEX_POINT ( 'NONE', #50 ) ;
#106 = PERSON_AND_ORGANIZATION ( #21, #168 ) ;
#107 = DIRECTION ( 'NONE',  ( 1.000000000000000000, 0.0000000000000000000, 0.0000000000000000000 ) ) ;
#108 = CARTESIAN_POINT ( 'NONE',  ( 0.0000000000000000000, 0.0000000000000000000, 0.0000000000000000000 ) ) ;
#109 = PERSON_AND_ORGANIZATION ( #21, #168 ) ;
#110 = PERSON_AND_ORGANIZATION_ROLE ( 'classification_officer' ) ;
#111 = ORIENTED_EDGE ( 'NONE', *, *, #155, .T. ) ;
#112 = EDGE_LOOP ( 'NONE', ( #111, #94 ) ) ;
#113 = AXIS2_PLACEMENT_3D ( 'NONE', #16, #85, #98 ) ;
#114 = FACE_OUTER_BOUND ( 'NONE', #77, .T. ) ;
#115 =( GEOMETRIC_REPRESENTATION_CONTEXT ( 3 ) GLOBAL_UNCERTAINTY_ASSIGNED_CONTEXT ( ( #63 ) ) GLOBAL_UNIT_ASSIGNED_CONTEXT ( ( #133, #161, #53 ) ) REPRESENTATION_CONTEXT ( 'NONE', 'WORKASPACE' ) );
#116 = CALENDAR_DATE ( 2017, 6, 3 ) ;
#117 = PERSON_AND_ORGANIZATION_ROLE ( 'creator' ) ;
#118 = DATE_TIME_ROLE ( 'classification_date' ) ;
#119 = DESIGN_CONTEXT ( 'detailed design', #95, 'design' ) ;
#120 = CARTESIAN_POINT ( 'NONE',  ( 0.0000000000000000000, 0.0000000000000000000, 0.0000000000000000000 ) ) ;
#121 = CC_DESIGN_PERSON_AND_ORGANIZATION_ASSIGNMENT ( #152, #117, ( #38 ) ) ;
#122 = APPLICATION_PROTOCOL_DEFINITION ( 'international standard', 'config_control_design', 1994, #150 ) ;
#123 = DATE_AND_TIME ( #30, #149 ) ;
#124 = PERSON_AND_ORGANIZATION ( #21, #168 ) ;
#125 = DIRECTION ( 'NONE',  ( -1.000000000000000000, -0.0000000000000000000, -0.0000000000000000000 ) ) ;
#126 = FACE_OUTER_BOUND ( 'NONE', #157, .T. ) ;
#127 = CARTESIAN_POINT ( 'NONE',  ( 4.000000000000000000, 2.449293598294706500E-015, -20.00000000000000000 ) ) ;
#128 = DIRECTION ( 'NONE',  ( 1.000000000000000000, 0.0000000000000000000, 0.0000000000000000000 ) ) ;
#129 = EDGE_CURVE ( 'NONE', #143, #105, #10, .T. ) ;
#130 = DIRECTION ( 'NONE',  ( 0.0000000000000000000, 0.0000000000000000000, -1.000000000000000000 ) ) ;
#131 = DIRECTION ( 'NONE',  ( 0.0000000000000000000, 0.0000000000000000000, -1.000000000000000000 ) ) ;
#132 = MECHANICAL_CONTEXT ( 'NONE', #150, 'mechanical' ) ;
#133 =( LENGTH_UNIT ( ) NAMED_UNIT ( * ) SI_UNIT ( .MILLI., .METRE. ) );
#134 = APPROVAL_STATUS ( 'not_yet_approved' ) ;
#135 = APPROVAL_DATE_TIME ( #76, #160 ) ;
#136 = COORDINATED_UNIVERSAL_TIME_OFFSET ( 5, 0, .BEHIND. ) ;
#137 = CARTESIAN_POINT ( 'NONE',  ( 4.000000000000000000, 2.449293598294706500E-015, -20.00000000000000000 ) ) ;
#138 = PLANE ( 'NONE',  #113 ) ;
#139 = PERSON_AND_ORGANIZATION ( #21, #168 ) ;
#140 = AXIS2_PLACEMENT_3D ( 'NONE', #108, #1, #159 ) ;
#141 = ORIENTED_EDGE ( 'NONE', *, *, #129, .T. ) ;
#142 = ORIENTED_EDGE ( 'NONE', *, *, #83, .T. ) ;
#143 = VERTEX_POINT ( 'NONE', #47 ) ;
#144 = ADVANCED_FACE ( 'NONE', ( #78 ), #138, .T. ) ;
#145 = COORDINATED_UNIVERSAL_TIME_OFFSET ( 5, 0, .BEHIND. ) ;
#146 = DIRECTION ( 'NONE',  ( 1.000000000000000000, 0.0000000000000000000, 0.0000000000000000000 ) ) ;
#147 = COORDINATED_UNIVERSAL_TIME_OFFSET ( 5, 0, .BEHIND. ) ;
#148 = LOCAL_TIME ( 14, 11, 2.000000000000000000, #145 ) ;
#149 = LOCAL_TIME ( 14, 11, 2.000000000000000000, #86 ) ;
#150 = APPLICATION_CONTEXT ( 'configuration controlled 3d designs of mechanical parts and assemblies' ) ;
#151 = AXIS2_PLACEMENT_3D ( 'NONE', #120, #146, #130 ) ;
#152 = PERSON_AND_ORGANIZATION ( #21, #168 ) ;
#153 = MANIFOLD_SOLID_BREP ( 'Extrude1', #14 ) ;
#154 = LOCAL_TIME ( 14, 11, 2.000000000000000000, #136 ) ;
#155 = EDGE_CURVE ( 'NONE', #40, #33, #101, .T. ) ;
#156 = ADVANCED_FACE ( 'NONE', ( #114 ), #32, .F. ) ;
#157 = EDGE_LOOP ( 'NONE', ( #35, #88, #142, #15 ) ) ;
#158 = AXIS2_PLACEMENT_3D ( 'NONE', #166, #80, #8 ) ;
#159 = DIRECTION ( 'NONE',  ( 1.000000000000000000, 0.0000000000000000000, 0.0000000000000000000 ) ) ;
#160 = APPROVAL ( #103, 'UNSPECIFIED' ) ;
#161 =( NAMED_UNIT ( * ) PLANE_ANGLE_UNIT ( ) SI_UNIT ( $, .RADIAN. ) );
#162 = SHAPE_DEFINITION_REPRESENTATION ( #2, #13 ) ;
#163 = EDGE_CURVE ( 'NONE', #33, #40, #173, .T. ) ;
#164 = DATE_AND_TIME ( #116, #154 ) ;
#165 = CARTESIAN_POINT ( 'NONE',  ( 4.000000000000000000, 0.0000000000000000000, 0.0000000000000000000 ) ) ;
#166 = CARTESIAN_POINT ( 'NONE',  ( 0.0000000000000000000, 0.0000000000000000000, 0.0000000000000000000 ) ) ;
#167 = APPROVAL_ROLE ( '' ) ;
#168 = ORGANIZATION ( 'UNSPECIFIED', 'UNSPECIFIED', '' ) ;
#169 = CC_DESIGN_APPROVAL ( #56, ( #38 ) ) ;
#170 = CC_DESIGN_APPROVAL ( #160, ( #7 ) ) ;
#171 = ORIENTED_EDGE ( 'NONE', *, *, #9, .F. ) ;
#172 = PERSON_AND_ORGANIZATION ( #21, #168 ) ;
#173 = CIRCLE ( 'NONE', #31, 20.00000000000000000 ) ;
#174 = PERSON_AND_ORGANIZATION_ROLE ( 'design_supplier' ) ;
#175 = DATE_AND_TIME ( #89, #36 ) ;
ENDSEC;
END-ISO-10303-21;
