ISO-10303-21;
HEADER;
FILE_DESCRIPTION (( 'STEP AP203' ),
    '1' );
FILE_NAME ('Web Model 14956_18321.step',
    '2021-06-28T13:29:15',
    ( '' ),
    ( '' ),
    'SwSTEP 2.0',
    'SolidWorks 2018',
    '' );
FILE_SCHEMA (( 'CONFIG_CONTROL_DESIGN' ));
ENDSEC;

DATA;
#1 = AXIS2_PLACEMENT_3D ( 'NONE', #61, #154, #52 ) ;
#2 = PERSON_AND_ORGANIZATION ( #87, #105 ) ;
#3 =( GEOMETRIC_REPRESENTATION_CONTEXT ( 3 ) GLOBAL_UNCERTAINTY_ASSIGNED_CONTEXT ( ( #146 ) ) GLOBAL_UNIT_ASSIGNED_CONTEXT ( ( #145, #159, #9 ) ) REPRESENTATION_CONTEXT ( 'NONE', 'WORKASPACE' ) );
#4 = FACE_OUTER_BOUND ( 'NONE', #56, .T. ) ;
#5 = PLANE ( 'NONE',  #139 ) ;
#6 = DIRECTION ( 'NONE',  ( 1.000000000000000000, 0.000000000000000000, 0.000000000000000000 ) ) ;
#7 = CARTESIAN_POINT ( 'NONE',  ( 0.5000000000000000000, 0.000000000000000000, 0.000000000000000000 ) ) ;
#8 = DIRECTION ( 'NONE',  ( 1.000000000000000000, 0.000000000000000000, 0.000000000000000000 ) ) ;
#9 =( NAMED_UNIT ( * ) SI_UNIT ( $, .STERADIAN. ) SOLID_ANGLE_UNIT ( ) );
#10 = CIRCLE ( 'NONE', #142, 5.000000000000000000 ) ;
#11 = EDGE_LOOP ( 'NONE', ( #117, #90 ) ) ;
#12 = CC_DESIGN_APPROVAL ( #16, ( #57 ) ) ;
#13 = APPROVAL_DATE_TIME ( #99, #91 ) ;
#14 = CIRCLE ( 'NONE', #41, 5.000000000000000000 ) ;
#15 = DATE_TIME_ROLE ( 'creation_date' ) ;
#16 = APPROVAL ( #108, 'UNSPECIFIED' ) ;
#17 = PERSON_AND_ORGANIZATION_ROLE ( 'design_supplier' ) ;
#18 = APPROVAL_DATE_TIME ( #164, #121 ) ;
#19 = CARTESIAN_POINT ( 'NONE',  ( -0.5000000000000000000, 0.000000000000000000, 0.000000000000000000 ) ) ;
#20 = DIRECTION ( 'NONE',  ( -1.000000000000000000, -0.000000000000000000, -0.000000000000000000 ) ) ;
#21 = ORIENTED_EDGE ( 'NONE', *, *, #97, .T. ) ;
#22 = CC_DESIGN_PERSON_AND_ORGANIZATION_ASSIGNMENT ( #49, #172, ( #36 ) ) ;
#23 = APPLICATION_CONTEXT ( 'configuration controlled 3d designs of mechanical parts and assemblies' ) ;
#24 = DIRECTION ( 'NONE',  ( 0.000000000000000000, 0.000000000000000000, 1.000000000000000000 ) ) ;
#25 = DATE_AND_TIME ( #167, #78 ) ;
#26 = CC_DESIGN_PERSON_AND_ORGANIZATION_ASSIGNMENT ( #137, #116, ( #57 ) ) ;
#27 = EDGE_LOOP ( 'NONE', ( #100, #152, #21, #158 ) ) ;
#28 = EDGE_CURVE ( 'NONE', #58, #120, #95, .T. ) ;
#29 = APPROVAL_STATUS ( 'not_yet_approved' ) ;
#30 = CARTESIAN_POINT ( 'NONE',  ( 0.5000000000000000000, 0.000000000000000000, 5.000000000000000000 ) ) ;
#31 = FACE_OUTER_BOUND ( 'NONE', #11, .T. ) ;
#32 = CC_DESIGN_DATE_AND_TIME_ASSIGNMENT ( #25, #15, ( #57 ) ) ;
#33 = DIRECTION ( 'NONE',  ( -1.000000000000000000, -0.000000000000000000, -0.000000000000000000 ) ) ;
#34 = MECHANICAL_CONTEXT ( 'NONE', #23, 'mechanical' ) ;
#35 = APPLICATION_PROTOCOL_DEFINITION ( 'international standard', 'config_control_design', 1994, #132 ) ;
#36 = PRODUCT ( 'Web Model 14956_18321', 'Web Model 14956_18321', '', ( #34 ) ) ;
#37 = COORDINATED_UNIVERSAL_TIME_OFFSET ( 5, 0, .BEHIND. ) ;
#38 = ORIENTED_EDGE ( 'NONE', *, *, #97, .F. ) ;
#39 = CALENDAR_DATE ( 2021, 28, 6 ) ;
#40 = VECTOR ( 'NONE', #33, 1000.000000000000000 ) ;
#41 = AXIS2_PLACEMENT_3D ( 'NONE', #7, #6, #107 ) ;
#42 = MANIFOLD_SOLID_BREP ( 'Boss-Extrude1', #45 ) ;
#43 = EDGE_CURVE ( 'NONE', #143, #58, #111, .T. ) ;
#44 = APPROVAL_ROLE ( '' ) ;
#45 = CLOSED_SHELL ( 'NONE', ( #60, #46, #85, #130 ) ) ;
#46 = ADVANCED_FACE ( 'NONE', ( #4 ), #86, .T. ) ;
#47 = CC_DESIGN_APPROVAL ( #91, ( #64 ) ) ;
#48 = APPROVAL_ROLE ( '' ) ;
#49 = PERSON_AND_ORGANIZATION ( #87, #105 ) ;
#50 = DIRECTION ( 'NONE',  ( 1.000000000000000000, 0.000000000000000000, 0.000000000000000000 ) ) ;
#51 = CARTESIAN_POINT ( 'NONE',  ( 0.5000000000000000000, 0.000000000000000000, 0.000000000000000000 ) ) ;
#52 = DIRECTION ( 'NONE',  ( 0.000000000000000000, 0.000000000000000000, 1.000000000000000000 ) ) ;
#53 = ORIENTED_EDGE ( 'NONE', *, *, #28, .F. ) ;
#54 = DIRECTION ( 'NONE',  ( 0.000000000000000000, 0.000000000000000000, -1.000000000000000000 ) ) ;
#55 = CARTESIAN_POINT ( 'NONE',  ( 0.000000000000000000, 0.000000000000000000, 0.000000000000000000 ) ) ;
#56 = EDGE_LOOP ( 'NONE', ( #138, #80, #175, #109 ) ) ;
#57 = PRODUCT_DEFINITION ( 'UNKNOWN', '', #64, #96 ) ;
#58 = VERTEX_POINT ( 'NONE', #155 ) ;
#59 = CALENDAR_DATE ( 2021, 28, 6 ) ;
#60 = ADVANCED_FACE ( 'NONE', ( #161 ), #129, .T. ) ;
#61 = CARTESIAN_POINT ( 'NONE',  ( 0.5000000000000000000, 0.000000000000000000, 0.000000000000000000 ) ) ;
#62 = LOCAL_TIME ( 9, 29, 15.00000000000000000, #127 ) ;
#63 = CARTESIAN_POINT ( 'NONE',  ( 0.5000000000000000000, 6.123233995736766282E-16, -5.000000000000000000 ) ) ;
#64 = PRODUCT_DEFINITION_FORMATION_WITH_SPECIFIED_SOURCE ( 'ANY', '', #36, .NOT_KNOWN. ) ;
#65 = DIRECTION ( 'NONE',  ( 0.000000000000000000, 0.000000000000000000, -1.000000000000000000 ) ) ;
#66 = COORDINATED_UNIVERSAL_TIME_OFFSET ( 5, 0, .BEHIND. ) ;
#67 = CARTESIAN_POINT ( 'NONE',  ( -0.5000000000000000000, 0.000000000000000000, 0.000000000000000000 ) ) ;
#68 = FACE_OUTER_BOUND ( 'NONE', #70, .T. ) ;
#69 = PERSON_AND_ORGANIZATION ( #87, #105 ) ;
#70 = EDGE_LOOP ( 'NONE', ( #53, #38 ) ) ;
#71 = EDGE_CURVE ( 'NONE', #114, #120, #82, .T. ) ;
#72 = AXIS2_PLACEMENT_3D ( 'NONE', #156, #20, #73 ) ;
#73 = DIRECTION ( 'NONE',  ( 0.000000000000000000, 0.000000000000000000, 1.000000000000000000 ) ) ;
#74 = DATE_AND_TIME ( #59, #62 ) ;
#75 = CIRCLE ( 'NONE', #79, 5.000000000000000000 ) ;
#76 = DIRECTION ( 'NONE',  ( 1.000000000000000000, 0.000000000000000000, 0.000000000000000000 ) ) ;
#77 = CARTESIAN_POINT ( 'NONE',  ( -0.5000000000000000000, 6.123233995736766282E-16, -5.000000000000000000 ) ) ;
#78 = LOCAL_TIME ( 9, 29, 15.00000000000000000, #66 ) ;
#79 = AXIS2_PLACEMENT_3D ( 'NONE', #92, #123, #65 ) ;
#80 = ORIENTED_EDGE ( 'NONE', *, *, #106, .F. ) ;
#81 = PERSON_AND_ORGANIZATION ( #87, #105 ) ;
#82 = LINE ( 'NONE', #89, #126 ) ;
#83 = PERSON_AND_ORGANIZATION_ROLE ( 'creator' ) ;
#84 = APPROVAL_PERSON_ORGANIZATION ( #149, #121, #44 ) ;
#85 = ADVANCED_FACE ( 'NONE', ( #31 ), #5, .T. ) ;
#86 = CYLINDRICAL_SURFACE ( 'NONE', #1, 5.000000000000000000 ) ;
#87 = PERSON ( 'UNSPECIFIED', 'UNSPECIFIED', 'UNSPECIFIED', ('UNSPECIFIED'), ('UNSPECIFIED'), ('UNSPECIFIED') ) ;
#88 = DIRECTION ( 'NONE',  ( 0.000000000000000000, 0.000000000000000000, -1.000000000000000000 ) ) ;
#89 = CARTESIAN_POINT ( 'NONE',  ( 0.5000000000000000000, 6.123233995736766282E-16, -5.000000000000000000 ) ) ;
#90 = ORIENTED_EDGE ( 'NONE', *, *, #163, .T. ) ;
#91 = APPROVAL ( #29, 'UNSPECIFIED' ) ;
#92 = CARTESIAN_POINT ( 'NONE',  ( 0.5000000000000000000, 0.000000000000000000, 0.000000000000000000 ) ) ;
#93 = DIRECTION ( 'NONE',  ( 1.000000000000000000, 0.000000000000000000, 0.000000000000000000 ) ) ;
#94 = CALENDAR_DATE ( 2021, 28, 6 ) ;
#95 = CIRCLE ( 'NONE', #153, 5.000000000000000000 ) ;
#96 = DESIGN_CONTEXT ( 'detailed design', #132, 'design' ) ;
#97 = EDGE_CURVE ( 'NONE', #120, #58, #10, .T. ) ;
#98 = LOCAL_TIME ( 9, 29, 15.00000000000000000, #37 ) ;
#99 = DATE_AND_TIME ( #113, #98 ) ;
#100 = ORIENTED_EDGE ( 'NONE', *, *, #163, .F. ) ;
#101 = CC_DESIGN_PERSON_AND_ORGANIZATION_ASSIGNMENT ( #169, #83, ( #64 ) ) ;
#102 = APPROVAL_STATUS ( 'not_yet_approved' ) ;
#103 = CC_DESIGN_PERSON_AND_ORGANIZATION_ASSIGNMENT ( #69, #151, ( #110 ) ) ;
#104 = APPLICATION_PROTOCOL_DEFINITION ( 'international standard', 'config_control_design', 1994, #23 ) ;
#105 = ORGANIZATION ( 'UNSPECIFIED', 'UNSPECIFIED', '' ) ;
#106 = EDGE_CURVE ( 'NONE', #143, #114, #14, .T. ) ;
#107 = DIRECTION ( 'NONE',  ( 0.000000000000000000, 0.000000000000000000, -1.000000000000000000 ) ) ;
#108 = APPROVAL_STATUS ( 'not_yet_approved' ) ;
#109 = ORIENTED_EDGE ( 'NONE', *, *, #28, .T. ) ;
#110 = SECURITY_CLASSIFICATION ( '', '', #115 ) ;
#111 = LINE ( 'NONE', #168, #40 ) ;
#112 = CC_DESIGN_DATE_AND_TIME_ASSIGNMENT ( #74, #118, ( #110 ) ) ;
#113 = CALENDAR_DATE ( 2021, 28, 6 ) ;
#114 = VERTEX_POINT ( 'NONE', #63 ) ;
#115 = SECURITY_CLASSIFICATION_LEVEL ( 'unclassified' ) ;
#116 = PERSON_AND_ORGANIZATION_ROLE ( 'creator' ) ;
#117 = ORIENTED_EDGE ( 'NONE', *, *, #106, .T. ) ;
#118 = DATE_TIME_ROLE ( 'classification_date' ) ;
#119 = LOCAL_TIME ( 9, 29, 15.00000000000000000, #148 ) ;
#120 = VERTEX_POINT ( 'NONE', #77 ) ;
#121 = APPROVAL ( #102, 'UNSPECIFIED' ) ;
#122 = DIRECTION ( 'NONE',  ( 0.000000000000000000, 0.000000000000000000, -1.000000000000000000 ) ) ;
#123 = DIRECTION ( 'NONE',  ( 1.000000000000000000, 0.000000000000000000, 0.000000000000000000 ) ) ;
#124 = APPROVAL_PERSON_ORGANIZATION ( #2, #16, #171 ) ;
#125 = CC_DESIGN_SECURITY_CLASSIFICATION ( #110, ( #64 ) ) ;
#126 = VECTOR ( 'NONE', #131, 1000.000000000000000 ) ;
#127 = COORDINATED_UNIVERSAL_TIME_OFFSET ( 5, 0, .BEHIND. ) ;
#128 = APPROVAL_PERSON_ORGANIZATION ( #134, #91, #48 ) ;
#129 = CYLINDRICAL_SURFACE ( 'NONE', #72, 5.000000000000000000 ) ;
#130 = ADVANCED_FACE ( 'NONE', ( #68 ), #144, .F. ) ;
#131 = DIRECTION ( 'NONE',  ( -1.000000000000000000, -0.000000000000000000, -0.000000000000000000 ) ) ;
#132 = APPLICATION_CONTEXT ( 'configuration controlled 3d designs of mechanical parts and assemblies' ) ;
#133 = AXIS2_PLACEMENT_3D ( 'NONE', #55, #24, #93 ) ;
#134 = PERSON_AND_ORGANIZATION ( #87, #105 ) ;
#135 = DIRECTION ( 'NONE',  ( 1.000000000000000000, 0.000000000000000000, 0.000000000000000000 ) ) ;
#136 = COORDINATED_UNIVERSAL_TIME_OFFSET ( 5, 0, .BEHIND. ) ;
#137 = PERSON_AND_ORGANIZATION ( #87, #105 ) ;
#138 = ORIENTED_EDGE ( 'NONE', *, *, #71, .F. ) ;
#139 = AXIS2_PLACEMENT_3D ( 'NONE', #51, #76, #88 ) ;
#140 = DIRECTION ( 'NONE',  ( 0.000000000000000000, 0.000000000000000000, -1.000000000000000000 ) ) ;
#141 = CARTESIAN_POINT ( 'NONE',  ( -0.5000000000000000000, 0.000000000000000000, 0.000000000000000000 ) ) ;
#142 = AXIS2_PLACEMENT_3D ( 'NONE', #141, #8, #122 ) ;
#143 = VERTEX_POINT ( 'NONE', #30 ) ;
#144 = PLANE ( 'NONE',  #173 ) ;
#145 =( LENGTH_UNIT ( ) NAMED_UNIT ( * ) SI_UNIT ( .MILLI., .METRE. ) );
#146 = UNCERTAINTY_MEASURE_WITH_UNIT (LENGTH_MEASURE( 1.000000000000000082E-05 ), #145, 'distance_accuracy_value', 'NONE');
#147 = PRODUCT_RELATED_PRODUCT_CATEGORY ( 'detail', '', ( #36 ) ) ;
#148 = COORDINATED_UNIVERSAL_TIME_OFFSET ( 5, 0, .BEHIND. ) ;
#149 = PERSON_AND_ORGANIZATION ( #87, #105 ) ;
#150 = CC_DESIGN_PERSON_AND_ORGANIZATION_ASSIGNMENT ( #81, #17, ( #64 ) ) ;
#151 = PERSON_AND_ORGANIZATION_ROLE ( 'classification_officer' ) ;
#152 = ORIENTED_EDGE ( 'NONE', *, *, #71, .T. ) ;
#153 = AXIS2_PLACEMENT_3D ( 'NONE', #19, #50, #140 ) ;
#154 = DIRECTION ( 'NONE',  ( -1.000000000000000000, -0.000000000000000000, -0.000000000000000000 ) ) ;
#155 = CARTESIAN_POINT ( 'NONE',  ( -0.5000000000000000000, 0.000000000000000000, 5.000000000000000000 ) ) ;
#156 = CARTESIAN_POINT ( 'NONE',  ( 0.5000000000000000000, 0.000000000000000000, 0.000000000000000000 ) ) ;
#157 = ADVANCED_BREP_SHAPE_REPRESENTATION ( 'Web Model 14956_18321', ( #42, #133 ), #3 ) ;
#158 = ORIENTED_EDGE ( 'NONE', *, *, #43, .F. ) ;
#159 =( NAMED_UNIT ( * ) PLANE_ANGLE_UNIT ( ) SI_UNIT ( $, .RADIAN. ) );
#160 = APPROVAL_DATE_TIME ( #170, #16 ) ;
#161 = FACE_OUTER_BOUND ( 'NONE', #27, .T. ) ;
#162 = CC_DESIGN_APPROVAL ( #121, ( #110 ) ) ;
#163 = EDGE_CURVE ( 'NONE', #114, #143, #75, .T. ) ;
#164 = DATE_AND_TIME ( #94, #174 ) ;
#165 = PRODUCT_DEFINITION_SHAPE ( 'NONE', 'NONE',  #57 ) ;
#166 = SHAPE_DEFINITION_REPRESENTATION ( #165, #157 ) ;
#167 = CALENDAR_DATE ( 2021, 28, 6 ) ;
#168 = CARTESIAN_POINT ( 'NONE',  ( 0.5000000000000000000, 0.000000000000000000, 5.000000000000000000 ) ) ;
#169 = PERSON_AND_ORGANIZATION ( #87, #105 ) ;
#170 = DATE_AND_TIME ( #39, #119 ) ;
#171 = APPROVAL_ROLE ( '' ) ;
#172 = PERSON_AND_ORGANIZATION_ROLE ( 'design_owner' ) ;
#173 = AXIS2_PLACEMENT_3D ( 'NONE', #67, #135, #54 ) ;
#174 = LOCAL_TIME ( 9, 29, 15.00000000000000000, #136 ) ;
#175 = ORIENTED_EDGE ( 'NONE', *, *, #43, .T. ) ;
ENDSEC;
END-ISO-10303-21;
