ISO-10303-21;
HEADER;
FILE_DESCRIPTION (( 'STEP AP203' ),
    '1' );
FILE_NAME ('Web Model 84457_47839.step',
    '2017-04-03T16:42:19',
    ( '' ),
    ( '' ),
    'SwSTEP 2.0',
    'SolidWorks 2016',
    '' );
FILE_SCHEMA (( 'CONFIG_CONTROL_DESIGN' ));
ENDSEC;

DATA;
#1 = CC_DESIGN_APPROVAL ( #136, ( #2 ) ) ;
#2 = SECURITY_CLASSIFICATION ( '', '', #36 ) ;
#3 = ORIENTED_EDGE ( 'NONE', *, *, #75, .F. ) ;
#4 = ORIENTED_EDGE ( 'NONE', *, *, #44, .F. ) ;
#5 = CC_DESIGN_PERSON_AND_ORGANIZATION_ASSIGNMENT ( #173, #171, ( #15 ) ) ;
#6 = CC_DESIGN_PERSON_AND_ORGANIZATION_ASSIGNMENT ( #43, #73, ( #15 ) ) ;
#7 = CALENDAR_DATE ( 2017, 3, 4 ) ;
#8 = CARTESIAN_POINT ( 'NONE',  ( 0.0000000000000000000, 0.0000000000000000000, 0.0000000000000000000 ) ) ;
#9 = CC_DESIGN_APPROVAL ( #13, ( #15 ) ) ;
#10 = LINE ( 'NONE', #174, #143 ) ;
#11 = DIRECTION ( 'NONE',  ( 1.000000000000000000, 0.0000000000000000000, -0.0000000000000000000 ) ) ;
#12 = DIRECTION ( 'NONE',  ( 1.000000000000000000, 0.0000000000000000000, 0.0000000000000000000 ) ) ;
#13 = APPROVAL ( #131, 'UNSPECIFIED' ) ;
#14 = DATE_AND_TIME ( #58, #96 ) ;
#15 = PRODUCT_DEFINITION_FORMATION_WITH_SPECIFIED_SOURCE ( 'ANY', '', #63, .NOT_KNOWN. ) ;
#16 = PERSON_AND_ORGANIZATION_ROLE ( 'classification_officer' ) ;
#17 = CC_DESIGN_DATE_AND_TIME_ASSIGNMENT ( #154, #169, ( #64 ) ) ;
#18 = CC_DESIGN_PERSON_AND_ORGANIZATION_ASSIGNMENT ( #130, #54, ( #64 ) ) ;
#19 = EDGE_CURVE ( 'NONE', #55, #165, #10, .T. ) ;
#20 = PERSON_AND_ORGANIZATION ( #46, #100 ) ;
#21 = AXIS2_PLACEMENT_3D ( 'NONE', #42, #161, #34 ) ;
#22 = FACE_OUTER_BOUND ( 'NONE', #152, .T. ) ;
#23 = DIRECTION ( 'NONE',  ( -0.0000000000000000000, -0.0000000000000000000, -1.000000000000000000 ) ) ;
#24 = AXIS2_PLACEMENT_3D ( 'NONE', #127, #146, #40 ) ;
#25 = CC_DESIGN_APPROVAL ( #38, ( #64 ) ) ;
#26 = AXIS2_PLACEMENT_3D ( 'NONE', #91, #90, #159 ) ;
#27 = EDGE_LOOP ( 'NONE', ( #111, #3 ) ) ;
#28 = AXIS2_PLACEMENT_3D ( 'NONE', #107, #153, #12 ) ;
#29 = AXIS2_PLACEMENT_3D ( 'NONE', #8, #88, #11 ) ;
#30 = LOCAL_TIME ( 12, 42, 19.00000000000000000, #76 ) ;
#31 = ORIENTED_EDGE ( 'NONE', *, *, #68, .T. ) ;
#32 = APPLICATION_CONTEXT ( 'configuration controlled 3d designs of mechanical parts and assemblies' ) ;
#33 = DIRECTION ( 'NONE',  ( -0.0000000000000000000, -0.0000000000000000000, -1.000000000000000000 ) ) ;
#34 = DIRECTION ( 'NONE',  ( 1.000000000000000000, 0.0000000000000000000, 0.0000000000000000000 ) ) ;
#35 = EDGE_LOOP ( 'NONE', ( #31, #104 ) ) ;
#36 = SECURITY_CLASSIFICATION_LEVEL ( 'unclassified' ) ;
#37 = EDGE_CURVE ( 'NONE', #147, #55, #51, .T. ) ;
#38 = APPROVAL ( #134, 'UNSPECIFIED' ) ;
#39 = CALENDAR_DATE ( 2017, 3, 4 ) ;
#40 = DIRECTION ( 'NONE',  ( 1.000000000000000000, 0.0000000000000000000, 0.0000000000000000000 ) ) ;
#41 = LINE ( 'NONE', #120, #126 ) ;
#42 = CARTESIAN_POINT ( 'NONE',  ( 0.0000000000000000000, 0.0000000000000000000, 4.000000000000000000 ) ) ;
#43 = PERSON_AND_ORGANIZATION ( #46, #100 ) ;
#44 = EDGE_CURVE ( 'NONE', #147, #122, #41, .T. ) ;
#45 = ADVANCED_BREP_SHAPE_REPRESENTATION ( 'Web Model 84457_47839', ( #79, #57 ), #49 ) ;
#46 = PERSON ( 'UNSPECIFIED', 'UNSPECIFIED', 'UNSPECIFIED', ('UNSPECIFIED'), ('UNSPECIFIED'), ('UNSPECIFIED') ) ;
#47 = CARTESIAN_POINT ( 'NONE',  ( 20.00000000000000000, 2.449293598294706500E-015, 4.000000000000000000 ) ) ;
#48 = COORDINATED_UNIVERSAL_TIME_OFFSET ( 5, 0, .BEHIND. ) ;
#49 =( GEOMETRIC_REPRESENTATION_CONTEXT ( 3 ) GLOBAL_UNCERTAINTY_ASSIGNED_CONTEXT ( ( #93 ) ) GLOBAL_UNIT_ASSIGNED_CONTEXT ( ( #108, #103, #163 ) ) REPRESENTATION_CONTEXT ( 'NONE', 'WORKASPACE' ) );
#50 = ADVANCED_FACE ( 'NONE', ( #22 ), #112, .T. ) ;
#51 = CIRCLE ( 'NONE', #21, 20.00000000000000000 ) ;
#52 = LOCAL_TIME ( 12, 42, 19.00000000000000000, #92 ) ;
#53 = CARTESIAN_POINT ( 'NONE',  ( 0.0000000000000000000, 0.0000000000000000000, 4.000000000000000000 ) ) ;
#54 = PERSON_AND_ORGANIZATION_ROLE ( 'creator' ) ;
#55 = VERTEX_POINT ( 'NONE', #71 ) ;
#56 = CC_DESIGN_PERSON_AND_ORGANIZATION_ASSIGNMENT ( #65, #132, ( #63 ) ) ;
#57 = AXIS2_PLACEMENT_3D ( 'NONE', #138, #121, #78 ) ;
#58 = CALENDAR_DATE ( 2017, 3, 4 ) ;
#59 = AXIS2_PLACEMENT_3D ( 'NONE', #53, #102, #80 ) ;
#60 = PLANE ( 'NONE',  #29 ) ;
#61 = FACE_OUTER_BOUND ( 'NONE', #98, .T. ) ;
#62 = APPLICATION_PROTOCOL_DEFINITION ( 'international standard', 'config_control_design', 1994, #32 ) ;
#63 = PRODUCT ( 'Web Model 84457_47839', 'Web Model 84457_47839', '', ( #95 ) ) ;
#64 = PRODUCT_DEFINITION ( 'UNKNOWN', '', #15, #117 ) ;
#65 = PERSON_AND_ORGANIZATION ( #46, #100 ) ;
#66 = PLANE ( 'NONE',  #101 ) ;
#67 = ORIENTED_EDGE ( 'NONE', *, *, #75, .T. ) ;
#68 = EDGE_CURVE ( 'NONE', #55, #147, #162, .T. ) ;
#69 = CIRCLE ( 'NONE', #28, 20.00000000000000000 ) ;
#70 = EDGE_CURVE ( 'NONE', #165, #122, #69, .T. ) ;
#71 = CARTESIAN_POINT ( 'NONE',  ( -20.00000000000000000, 0.0000000000000000000, 4.000000000000000000 ) ) ;
#72 = APPROVAL_ROLE ( '' ) ;
#73 = PERSON_AND_ORGANIZATION_ROLE ( 'creator' ) ;
#74 = CYLINDRICAL_SURFACE ( 'NONE', #59, 20.00000000000000000 ) ;
#75 = EDGE_CURVE ( 'NONE', #122, #165, #135, .T. ) ;
#76 = COORDINATED_UNIVERSAL_TIME_OFFSET ( 5, 0, .BEHIND. ) ;
#77 = CARTESIAN_POINT ( 'NONE',  ( -20.00000000000000000, 0.0000000000000000000, 0.0000000000000000000 ) ) ;
#78 = DIRECTION ( 'NONE',  ( 1.000000000000000000, 0.0000000000000000000, 0.0000000000000000000 ) ) ;
#79 = MANIFOLD_SOLID_BREP ( 'Extrude1', #150 ) ;
#80 = DIRECTION ( 'NONE',  ( -1.000000000000000000, 0.0000000000000000000, 0.0000000000000000000 ) ) ;
#81 = LOCAL_TIME ( 12, 42, 19.00000000000000000, #118 ) ;
#82 = ADVANCED_FACE ( 'NONE', ( #156 ), #66, .T. ) ;
#83 = ORIENTED_EDGE ( 'NONE', *, *, #19, .T. ) ;
#84 = CARTESIAN_POINT ( 'NONE',  ( 20.00000000000000000, 2.449293598294706500E-015, 0.0000000000000000000 ) ) ;
#85 = APPROVAL_DATE_TIME ( #125, #13 ) ;
#86 = APPROVAL_STATUS ( 'not_yet_approved' ) ;
#87 = APPLICATION_CONTEXT ( 'configuration controlled 3d designs of mechanical parts and assemblies' ) ;
#88 = DIRECTION ( 'NONE',  ( 0.0000000000000000000, 0.0000000000000000000, 1.000000000000000000 ) ) ;
#89 = APPROVAL_PERSON_ORGANIZATION ( #128, #13, #72 ) ;
#90 = DIRECTION ( 'NONE',  ( 0.0000000000000000000, 0.0000000000000000000, 1.000000000000000000 ) ) ;
#91 = CARTESIAN_POINT ( 'NONE',  ( 0.0000000000000000000, 0.0000000000000000000, 0.0000000000000000000 ) ) ;
#92 = COORDINATED_UNIVERSAL_TIME_OFFSET ( 5, 0, .BEHIND. ) ;
#93 = UNCERTAINTY_MEASURE_WITH_UNIT (LENGTH_MEASURE( 1.000000000000000100E-005 ), #108, 'distance_accuracy_value', 'NONE');
#94 = ORIENTED_EDGE ( 'NONE', *, *, #19, .F. ) ;
#95 = MECHANICAL_CONTEXT ( 'NONE', #87, 'mechanical' ) ;
#96 = LOCAL_TIME ( 12, 42, 19.00000000000000000, #133 ) ;
#97 = FACE_OUTER_BOUND ( 'NONE', #27, .T. ) ;
#98 = EDGE_LOOP ( 'NONE', ( #4, #168, #83, #106 ) ) ;
#99 = DIRECTION ( 'NONE',  ( -0.0000000000000000000, -0.0000000000000000000, -1.000000000000000000 ) ) ;
#100 = ORGANIZATION ( 'UNSPECIFIED', 'UNSPECIFIED', '' ) ;
#101 = AXIS2_PLACEMENT_3D ( 'NONE', #123, #155, #109 ) ;
#102 = DIRECTION ( 'NONE',  ( -0.0000000000000000000, -0.0000000000000000000, -1.000000000000000000 ) ) ;
#103 =( NAMED_UNIT ( * ) PLANE_ANGLE_UNIT ( ) SI_UNIT ( $, .RADIAN. ) );
#104 = ORIENTED_EDGE ( 'NONE', *, *, #37, .T. ) ;
#105 = ADVANCED_FACE ( 'NONE', ( #97 ), #60, .F. ) ;
#106 = ORIENTED_EDGE ( 'NONE', *, *, #70, .T. ) ;
#107 = CARTESIAN_POINT ( 'NONE',  ( 0.0000000000000000000, 0.0000000000000000000, 0.0000000000000000000 ) ) ;
#108 =( LENGTH_UNIT ( ) NAMED_UNIT ( * ) SI_UNIT ( .MILLI., .METRE. ) );
#109 = DIRECTION ( 'NONE',  ( 1.000000000000000000, 0.0000000000000000000, -0.0000000000000000000 ) ) ;
#110 = APPROVAL_DATE_TIME ( #140, #136 ) ;
#111 = ORIENTED_EDGE ( 'NONE', *, *, #70, .F. ) ;
#112 = CYLINDRICAL_SURFACE ( 'NONE', #166, 20.00000000000000000 ) ;
#113 = CC_DESIGN_DATE_AND_TIME_ASSIGNMENT ( #170, #119, ( #2 ) ) ;
#114 = CARTESIAN_POINT ( 'NONE',  ( 0.0000000000000000000, 0.0000000000000000000, 4.000000000000000000 ) ) ;
#115 = DIRECTION ( 'NONE',  ( -1.000000000000000000, 0.0000000000000000000, 0.0000000000000000000 ) ) ;
#116 = APPROVAL_PERSON_ORGANIZATION ( #144, #136, #129 ) ;
#117 = DESIGN_CONTEXT ( 'detailed design', #32, 'design' ) ;
#118 = COORDINATED_UNIVERSAL_TIME_OFFSET ( 5, 0, .BEHIND. ) ;
#119 = DATE_TIME_ROLE ( 'classification_date' ) ;
#120 = CARTESIAN_POINT ( 'NONE',  ( 20.00000000000000000, 2.449293598294706500E-015, 4.000000000000000000 ) ) ;
#121 = DIRECTION ( 'NONE',  ( 0.0000000000000000000, 0.0000000000000000000, 1.000000000000000000 ) ) ;
#122 = VERTEX_POINT ( 'NONE', #84 ) ;
#123 = CARTESIAN_POINT ( 'NONE',  ( 0.0000000000000000000, 0.0000000000000000000, 4.000000000000000000 ) ) ;
#124 = CC_DESIGN_PERSON_AND_ORGANIZATION_ASSIGNMENT ( #145, #16, ( #2 ) ) ;
#125 = DATE_AND_TIME ( #149, #175 ) ;
#126 = VECTOR ( 'NONE', #33, 1000.000000000000000 ) ;
#127 = CARTESIAN_POINT ( 'NONE',  ( 0.0000000000000000000, 0.0000000000000000000, 4.000000000000000000 ) ) ;
#128 = PERSON_AND_ORGANIZATION ( #46, #100 ) ;
#129 = APPROVAL_ROLE ( '' ) ;
#130 = PERSON_AND_ORGANIZATION ( #46, #100 ) ;
#131 = APPROVAL_STATUS ( 'not_yet_approved' ) ;
#132 = PERSON_AND_ORGANIZATION_ROLE ( 'design_owner' ) ;
#133 = COORDINATED_UNIVERSAL_TIME_OFFSET ( 5, 0, .BEHIND. ) ;
#134 = APPROVAL_STATUS ( 'not_yet_approved' ) ;
#135 = CIRCLE ( 'NONE', #26, 20.00000000000000000 ) ;
#136 = APPROVAL ( #86, 'UNSPECIFIED' ) ;
#137 = ORIENTED_EDGE ( 'NONE', *, *, #44, .T. ) ;
#138 = CARTESIAN_POINT ( 'NONE',  ( 0.0000000000000000000, 0.0000000000000000000, 0.0000000000000000000 ) ) ;
#139 = ORIENTED_EDGE ( 'NONE', *, *, #37, .F. ) ;
#140 = DATE_AND_TIME ( #167, #30 ) ;
#141 = PRODUCT_DEFINITION_SHAPE ( 'NONE', 'NONE',  #64 ) ;
#142 = ADVANCED_FACE ( 'NONE', ( #61 ), #74, .T. ) ;
#143 = VECTOR ( 'NONE', #23, 1000.000000000000000 ) ;
#144 = PERSON_AND_ORGANIZATION ( #46, #100 ) ;
#145 = PERSON_AND_ORGANIZATION ( #46, #100 ) ;
#146 = DIRECTION ( 'NONE',  ( 0.0000000000000000000, 0.0000000000000000000, 1.000000000000000000 ) ) ;
#147 = VERTEX_POINT ( 'NONE', #47 ) ;
#148 = APPLICATION_PROTOCOL_DEFINITION ( 'international standard', 'config_control_design', 1994, #87 ) ;
#149 = CALENDAR_DATE ( 2017, 3, 4 ) ;
#150 = CLOSED_SHELL ( 'NONE', ( #50, #142, #82, #105 ) ) ;
#151 = PRODUCT_RELATED_PRODUCT_CATEGORY ( 'detail', '', ( #63 ) ) ;
#152 = EDGE_LOOP ( 'NONE', ( #139, #137, #67, #94 ) ) ;
#153 = DIRECTION ( 'NONE',  ( 0.0000000000000000000, 0.0000000000000000000, 1.000000000000000000 ) ) ;
#154 = DATE_AND_TIME ( #7, #52 ) ;
#155 = DIRECTION ( 'NONE',  ( 0.0000000000000000000, 0.0000000000000000000, 1.000000000000000000 ) ) ;
#156 = FACE_OUTER_BOUND ( 'NONE', #35, .T. ) ;
#157 = CC_DESIGN_SECURITY_CLASSIFICATION ( #2, ( #15 ) ) ;
#158 = APPROVAL_DATE_TIME ( #14, #38 ) ;
#159 = DIRECTION ( 'NONE',  ( 1.000000000000000000, 0.0000000000000000000, 0.0000000000000000000 ) ) ;
#160 = APPROVAL_PERSON_ORGANIZATION ( #20, #38, #164 ) ;
#161 = DIRECTION ( 'NONE',  ( 0.0000000000000000000, 0.0000000000000000000, 1.000000000000000000 ) ) ;
#162 = CIRCLE ( 'NONE', #24, 20.00000000000000000 ) ;
#163 =( NAMED_UNIT ( * ) SI_UNIT ( $, .STERADIAN. ) SOLID_ANGLE_UNIT ( ) );
#164 = APPROVAL_ROLE ( '' ) ;
#165 = VERTEX_POINT ( 'NONE', #77 ) ;
#166 = AXIS2_PLACEMENT_3D ( 'NONE', #114, #99, #115 ) ;
#167 = CALENDAR_DATE ( 2017, 3, 4 ) ;
#168 = ORIENTED_EDGE ( 'NONE', *, *, #68, .F. ) ;
#169 = DATE_TIME_ROLE ( 'creation_date' ) ;
#170 = DATE_AND_TIME ( #39, #81 ) ;
#171 = PERSON_AND_ORGANIZATION_ROLE ( 'design_supplier' ) ;
#172 = SHAPE_DEFINITION_REPRESENTATION ( #141, #45 ) ;
#173 = PERSON_AND_ORGANIZATION ( #46, #100 ) ;
#174 = CARTESIAN_POINT ( 'NONE',  ( -20.00000000000000000, 0.0000000000000000000, 4.000000000000000000 ) ) ;
#175 = LOCAL_TIME ( 12, 42, 19.00000000000000000, #48 ) ;
ENDSEC;
END-ISO-10303-21;
