ISO-10303-21;
HEADER;
FILE_DESCRIPTION (( 'STEP AP203' ),
    '1' );
FILE_NAME ('Web Model 85296_85296.step',
    '2017-05-01T20:09:20',
    ( '' ),
    ( '' ),
    'SwSTEP 2.0',
    'SolidWorks 2016',
    '' );
FILE_SCHEMA (( 'CONFIG_CONTROL_DESIGN' ));
ENDSEC;

DATA;
#1 = CARTESIAN_POINT ( 'NONE',  ( -25.00000000000000700, 25.00000000000000000, 1.000000000000000000 ) ) ;
#2 = CARTESIAN_POINT ( 'NONE',  ( -25.00000000000000700, 25.00000000000000000, -1.000000000000000000 ) ) ;
#3 = CARTESIAN_POINT ( 'NONE',  ( -25.00000000000000000, -25.00000000000000000, 1.000000000000000000 ) ) ;
#4 = ORIENTED_EDGE ( 'NONE', *, *, #89, .T. ) ;
#5 = ADVANCED_BREP_SHAPE_REPRESENTATION ( 'Web Model 85296_85296', ( #84, #44 ), #206 ) ;
#6 = CARTESIAN_POINT ( 'NONE',  ( -25.00000000000000700, 25.00000000000000000, -1.000000000000000000 ) ) ;
#7 = VECTOR ( 'NONE', #78, 1000.000000000000000 ) ;
#8 = PERSON_AND_ORGANIZATION ( #203, #144 ) ;
#9 = VERTEX_POINT ( 'NONE', #195 ) ;
#10 = DATE_AND_TIME ( #153, #63 ) ;
#11 = PRODUCT_RELATED_PRODUCT_CATEGORY ( 'detail', '', ( #16 ) ) ;
#12 = LINE ( 'NONE', #154, #30 ) ;
#13 = PERSON_AND_ORGANIZATION ( #203, #144 ) ;
#14 = PERSON_AND_ORGANIZATION ( #203, #144 ) ;
#15 = CARTESIAN_POINT ( 'NONE',  ( -25.00000000000000700, 25.00000000000000000, 1.000000000000000000 ) ) ;
#16 = PRODUCT ( 'Web Model 85296_85296', 'Web Model 85296_85296', '', ( #123 ) ) ;
#17 = ORIENTED_EDGE ( 'NONE', *, *, #116, .T. ) ;
#18 = ORIENTED_EDGE ( 'NONE', *, *, #37, .T. ) ;
#19 = SECURITY_CLASSIFICATION_LEVEL ( 'unclassified' ) ;
#20 = DIRECTION ( 'NONE',  ( 1.000000000000000000, 0.0000000000000000000, 0.0000000000000000000 ) ) ;
#21 = APPROVAL_DATE_TIME ( #10, #120 ) ;
#22 = CARTESIAN_POINT ( 'NONE',  ( 24.99999999999999300, 25.00000000000000000, 1.000000000000000000 ) ) ;
#23 = PERSON_AND_ORGANIZATION ( #203, #144 ) ;
#24 = DIRECTION ( 'NONE',  ( -0.0000000000000000000, 0.0000000000000000000, 1.000000000000000000 ) ) ;
#25 = ORIENTED_EDGE ( 'NONE', *, *, #56, .F. ) ;
#26 = ORIENTED_EDGE ( 'NONE', *, *, #131, .T. ) ;
#27 = EDGE_LOOP ( 'NONE', ( #170, #91, #25, #128 ) ) ;
#28 = SHAPE_DEFINITION_REPRESENTATION ( #65, #5 ) ;
#29 = EDGE_CURVE ( 'NONE', #45, #94, #211, .T. ) ;
#30 = VECTOR ( 'NONE', #90, 1000.000000000000000 ) ;
#31 = COORDINATED_UNIVERSAL_TIME_OFFSET ( 5, 0, .BEHIND. ) ;
#32 = ADVANCED_FACE ( 'NONE', ( #114 ), #112, .F. ) ;
#33 = LINE ( 'NONE', #83, #7 ) ;
#34 = CALENDAR_DATE ( 2017, 1, 5 ) ;
#35 = PLANE ( 'NONE',  #202 ) ;
#36 = PERSON_AND_ORGANIZATION_ROLE ( 'creator' ) ;
#37 = EDGE_CURVE ( 'NONE', #217, #45, #168, .T. ) ;
#38 = APPROVAL_PERSON_ORGANIZATION ( #161, #120, #148 ) ;
#39 = DIRECTION ( 'NONE',  ( -1.000000000000000000, -1.387778780781445700E-016, 0.0000000000000000000 ) ) ;
#40 = CARTESIAN_POINT ( 'NONE',  ( 25.00000000000000000, -25.00000000000000000, 1.000000000000000000 ) ) ;
#41 = PLANE ( 'NONE',  #182 ) ;
#42 = DIRECTION ( 'NONE',  ( 0.0000000000000000000, -0.0000000000000000000, 1.000000000000000000 ) ) ;
#43 = DIRECTION ( 'NONE',  ( -1.387778780781445700E-016, 1.000000000000000000, 0.0000000000000000000 ) ) ;
#44 = AXIS2_PLACEMENT_3D ( 'NONE', #87, #109, #20 ) ;
#45 = VERTEX_POINT ( 'NONE', #15 ) ;
#46 = DIRECTION ( 'NONE',  ( 1.387778780781445700E-016, -1.000000000000000000, 0.0000000000000000000 ) ) ;
#47 = DIRECTION ( 'NONE',  ( 1.000000000000000000, 1.387778780781445700E-016, -0.0000000000000000000 ) ) ;
#48 = LOCAL_TIME ( 16, 9, 20.00000000000000000, #232 ) ;
#49 = VECTOR ( 'NONE', #93, 1000.000000000000000 ) ;
#50 = EDGE_CURVE ( 'NONE', #94, #58, #53, .T. ) ;
#51 = PERSON_AND_ORGANIZATION ( #203, #144 ) ;
#52 = ORIENTED_EDGE ( 'NONE', *, *, #50, .F. ) ;
#53 = LINE ( 'NONE', #3, #235 ) ;
#54 = CARTESIAN_POINT ( 'NONE',  ( -25.00000000000000700, 25.00000000000000000, 1.000000000000000000 ) ) ;
#55 = APPROVAL_STATUS ( 'not_yet_approved' ) ;
#56 = EDGE_CURVE ( 'NONE', #94, #220, #33, .T. ) ;
#57 = CARTESIAN_POINT ( 'NONE',  ( 24.99999999999999300, 25.00000000000000000, 1.000000000000000000 ) ) ;
#58 = VERTEX_POINT ( 'NONE', #62 ) ;
#59 = LOCAL_TIME ( 16, 9, 20.00000000000000000, #31 ) ;
#60 = CALENDAR_DATE ( 2017, 1, 5 ) ;
#61 = EDGE_CURVE ( 'NONE', #58, #160, #118, .T. ) ;
#62 = CARTESIAN_POINT ( 'NONE',  ( -25.00000000000000000, -25.00000000000000000, -1.000000000000000000 ) ) ;
#63 = LOCAL_TIME ( 16, 9, 20.00000000000000000, #122 ) ;
#64 = VECTOR ( 'NONE', #157, 1000.000000000000000 ) ;
#65 = PRODUCT_DEFINITION_SHAPE ( 'NONE', 'NONE',  #196 ) ;
#66 = CARTESIAN_POINT ( 'NONE',  ( -25.00000000000000700, 25.00000000000000000, 1.000000000000000000 ) ) ;
#67 = PERSON_AND_ORGANIZATION_ROLE ( 'creator' ) ;
#68 = CC_DESIGN_PERSON_AND_ORGANIZATION_ASSIGNMENT ( #13, #237, ( #16 ) ) ;
#69 = APPLICATION_CONTEXT ( 'configuration controlled 3d designs of mechanical parts and assemblies' ) ;
#70 = DIRECTION ( 'NONE',  ( -1.387778780781445700E-016, 1.000000000000000000, -0.0000000000000000000 ) ) ;
#71 = PLANE ( 'NONE',  #151 ) ;
#72 = CC_DESIGN_APPROVAL ( #80, ( #196 ) ) ;
#73 = ORIENTED_EDGE ( 'NONE', *, *, #116, .F. ) ;
#74 = CALENDAR_DATE ( 2017, 1, 5 ) ;
#75 = LINE ( 'NONE', #57, #130 ) ;
#76 = EDGE_CURVE ( 'NONE', #45, #85, #12, .T. ) ;
#77 = ORIENTED_EDGE ( 'NONE', *, *, #213, .T. ) ;
#78 = DIRECTION ( 'NONE',  ( 1.000000000000000000, 0.0000000000000000000, 0.0000000000000000000 ) ) ;
#79 = ADVANCED_FACE ( 'NONE', ( #226 ), #35, .F. ) ;
#80 = APPROVAL ( #86, 'UNSPECIFIED' ) ;
#81 = ORIENTED_EDGE ( 'NONE', *, *, #131, .F. ) ;
#82 = CC_DESIGN_PERSON_AND_ORGANIZATION_ASSIGNMENT ( #236, #67, ( #196 ) ) ;
#83 = CARTESIAN_POINT ( 'NONE',  ( -25.00000000000000000, -25.00000000000000000, 1.000000000000000000 ) ) ;
#84 = MANIFOLD_SOLID_BREP ( 'Boss-Extrude1', #136 ) ;
#85 = VERTEX_POINT ( 'NONE', #6 ) ;
#86 = APPROVAL_STATUS ( 'not_yet_approved' ) ;
#87 = CARTESIAN_POINT ( 'NONE',  ( 0.0000000000000000000, 0.0000000000000000000, 0.0000000000000000000 ) ) ;
#88 = CARTESIAN_POINT ( 'NONE',  ( 25.00000000000000000, -25.00000000000000000, -1.000000000000000000 ) ) ;
#89 = EDGE_CURVE ( 'NONE', #220, #160, #180, .T. ) ;
#90 = DIRECTION ( 'NONE',  ( -0.0000000000000000000, -0.0000000000000000000, -1.000000000000000000 ) ) ;
#91 = ORIENTED_EDGE ( 'NONE', *, *, #89, .F. ) ;
#92 = EDGE_LOOP ( 'NONE', ( #159, #52, #162, #207 ) ) ;
#93 = DIRECTION ( 'NONE',  ( 1.000000000000000000, 0.0000000000000000000, 0.0000000000000000000 ) ) ;
#94 = VERTEX_POINT ( 'NONE', #125 ) ;
#95 = PERSON_AND_ORGANIZATION ( #203, #144 ) ;
#96 = CC_DESIGN_DATE_AND_TIME_ASSIGNMENT ( #102, #171, ( #196 ) ) ;
#97 = ADVANCED_FACE ( 'NONE', ( #169 ), #119, .F. ) ;
#98 = LOCAL_TIME ( 16, 9, 20.00000000000000000, #108 ) ;
#99 = APPROVAL_DATE_TIME ( #204, #199 ) ;
#100 = LINE ( 'NONE', #194, #101 ) ;
#101 = VECTOR ( 'NONE', #197, 1000.000000000000000 ) ;
#102 = DATE_AND_TIME ( #74, #98 ) ;
#103 = APPROVAL_STATUS ( 'not_yet_approved' ) ;
#104 = APPLICATION_CONTEXT ( 'configuration controlled 3d designs of mechanical parts and assemblies' ) ;
#105 =( NAMED_UNIT ( * ) SI_UNIT ( $, .STERADIAN. ) SOLID_ANGLE_UNIT ( ) );
#106 = DIRECTION ( 'NONE',  ( -1.000000000000000000, -0.0000000000000000000, -0.0000000000000000000 ) ) ;
#107 = DIRECTION ( 'NONE',  ( 1.000000000000000000, 0.0000000000000000000, 0.0000000000000000000 ) ) ;
#108 = COORDINATED_UNIVERSAL_TIME_OFFSET ( 5, 0, .BEHIND. ) ;
#109 = DIRECTION ( 'NONE',  ( 0.0000000000000000000, 0.0000000000000000000, 1.000000000000000000 ) ) ;
#110 = PRODUCT_DEFINITION_FORMATION_WITH_SPECIFIED_SOURCE ( 'ANY', '', #16, .NOT_KNOWN. ) ;
#111 = ORIENTED_EDGE ( 'NONE', *, *, #213, .F. ) ;
#112 = PLANE ( 'NONE',  #172 ) ;
#113 = DATE_AND_TIME ( #34, #48 ) ;
#114 = FACE_OUTER_BOUND ( 'NONE', #92, .T. ) ;
#115 = LINE ( 'NONE', #2, #175 ) ;
#116 = EDGE_CURVE ( 'NONE', #217, #9, #100, .T. ) ;
#117 = DIRECTION ( 'NONE',  ( -0.0000000000000000000, -0.0000000000000000000, -1.000000000000000000 ) ) ;
#118 = LINE ( 'NONE', #174, #49 ) ;
#119 = PLANE ( 'NONE',  #158 ) ;
#120 = APPROVAL ( #55, 'UNSPECIFIED' ) ;
#121 = PERSON_AND_ORGANIZATION_ROLE ( 'classification_officer' ) ;
#122 = COORDINATED_UNIVERSAL_TIME_OFFSET ( 5, 0, .BEHIND. ) ;
#123 = MECHANICAL_CONTEXT ( 'NONE', #69, 'mechanical' ) ;
#124 = PLANE ( 'NONE',  #222 ) ;
#125 = CARTESIAN_POINT ( 'NONE',  ( -25.00000000000000000, -25.00000000000000000, 1.000000000000000000 ) ) ;
#126 = CARTESIAN_POINT ( 'NONE',  ( -25.00000000000000700, 25.00000000000000000, -1.000000000000000000 ) ) ;
#127 = DIRECTION ( 'NONE',  ( 0.0000000000000000000, -1.000000000000000000, 0.0000000000000000000 ) ) ;
#128 = ORIENTED_EDGE ( 'NONE', *, *, #50, .T. ) ;
#129 = ORIENTED_EDGE ( 'NONE', *, *, #190, .F. ) ;
#130 = VECTOR ( 'NONE', #150, 1000.000000000000000 ) ;
#131 = EDGE_CURVE ( 'NONE', #160, #9, #155, .T. ) ;
#132 = FACE_OUTER_BOUND ( 'NONE', #163, .T. ) ;
#133 = CC_DESIGN_APPROVAL ( #120, ( #110 ) ) ;
#134 = FACE_OUTER_BOUND ( 'NONE', #183, .T. ) ;
#135 = ORIENTED_EDGE ( 'NONE', *, *, #61, .F. ) ;
#136 = CLOSED_SHELL ( 'NONE', ( #79, #225, #32, #165, #167, #97 ) ) ;
#137 = PERSON_AND_ORGANIZATION_ROLE ( 'design_supplier' ) ;
#138 =( NAMED_UNIT ( * ) PLANE_ANGLE_UNIT ( ) SI_UNIT ( $, .RADIAN. ) );
#139 = DIRECTION ( 'NONE',  ( 1.000000000000000000, 0.0000000000000000000, 0.0000000000000000000 ) ) ;
#140 = ORIENTED_EDGE ( 'NONE', *, *, #76, .F. ) ;
#141 = DIRECTION ( 'NONE',  ( 0.0000000000000000000, -0.0000000000000000000, -1.000000000000000000 ) ) ;
#142 = APPROVAL_DATE_TIME ( #166, #80 ) ;
#143 = CC_DESIGN_PERSON_AND_ORGANIZATION_ASSIGNMENT ( #8, #36, ( #110 ) ) ;
#144 = ORGANIZATION ( 'UNSPECIFIED', 'UNSPECIFIED', '' ) ;
#145 = FACE_OUTER_BOUND ( 'NONE', #27, .T. ) ;
#146 = ORIENTED_EDGE ( 'NONE', *, *, #185, .T. ) ;
#147 = CC_DESIGN_PERSON_AND_ORGANIZATION_ASSIGNMENT ( #95, #137, ( #110 ) ) ;
#148 = APPROVAL_ROLE ( '' ) ;
#149 = APPLICATION_PROTOCOL_DEFINITION ( 'international standard', 'config_control_design', 1994, #69 ) ;
#150 = DIRECTION ( 'NONE',  ( -1.387778780781445700E-016, 1.000000000000000000, -0.0000000000000000000 ) ) ;
#151 = AXIS2_PLACEMENT_3D ( 'NONE', #193, #152, #42 ) ;
#152 = DIRECTION ( 'NONE',  ( 0.0000000000000000000, 1.000000000000000000, 0.0000000000000000000 ) ) ;
#153 = CALENDAR_DATE ( 2017, 1, 5 ) ;
#154 = CARTESIAN_POINT ( 'NONE',  ( -25.00000000000000700, 25.00000000000000000, 1.000000000000000000 ) ) ;
#155 = LINE ( 'NONE', #173, #156 ) ;
#156 = VECTOR ( 'NONE', #70, 1000.000000000000000 ) ;
#157 = DIRECTION ( 'NONE',  ( -0.0000000000000000000, -0.0000000000000000000, -1.000000000000000000 ) ) ;
#158 = AXIS2_PLACEMENT_3D ( 'NONE', #228, #184, #107 ) ;
#159 = ORIENTED_EDGE ( 'NONE', *, *, #190, .T. ) ;
#160 = VERTEX_POINT ( 'NONE', #88 ) ;
#161 = PERSON_AND_ORGANIZATION ( #203, #144 ) ;
#162 = ORIENTED_EDGE ( 'NONE', *, *, #29, .F. ) ;
#163 = EDGE_LOOP ( 'NONE', ( #146, #140, #187, #17 ) ) ;
#164 = SECURITY_CLASSIFICATION ( '', '', #19 ) ;
#165 = ADVANCED_FACE ( 'NONE', ( #145 ), #71, .F. ) ;
#166 = DATE_AND_TIME ( #60, #59 ) ;
#167 = ADVANCED_FACE ( 'NONE', ( #134 ), #41, .T. ) ;
#168 = LINE ( 'NONE', #54, #221 ) ;
#169 = FACE_OUTER_BOUND ( 'NONE', #205, .T. ) ;
#170 = ORIENTED_EDGE ( 'NONE', *, *, #61, .T. ) ;
#171 = DATE_TIME_ROLE ( 'creation_date' ) ;
#172 = AXIS2_PLACEMENT_3D ( 'NONE', #192, #47, #43 ) ;
#173 = CARTESIAN_POINT ( 'NONE',  ( 24.99999999999999300, 25.00000000000000000, -1.000000000000000000 ) ) ;
#174 = CARTESIAN_POINT ( 'NONE',  ( -25.00000000000000000, -25.00000000000000000, -1.000000000000000000 ) ) ;
#175 = VECTOR ( 'NONE', #106, 1000.000000000000000 ) ;
#176 = CC_DESIGN_PERSON_AND_ORGANIZATION_ASSIGNMENT ( #14, #121, ( #164 ) ) ;
#177 = DESIGN_CONTEXT ( 'detailed design', #104, 'design' ) ;
#178 = DIRECTION ( 'NONE',  ( 1.387778780781445700E-016, -1.000000000000000000, 0.0000000000000000000 ) ) ;
#179 = COORDINATED_UNIVERSAL_TIME_OFFSET ( 5, 0, .BEHIND. ) ;
#180 = LINE ( 'NONE', #215, #64 ) ;
#181 = APPROVAL_PERSON_ORGANIZATION ( #23, #199, #209 ) ;
#182 = AXIS2_PLACEMENT_3D ( 'NONE', #214, #24, #139 ) ;
#183 = EDGE_LOOP ( 'NONE', ( #77, #18, #234, #229 ) ) ;
#184 = DIRECTION ( 'NONE',  ( -0.0000000000000000000, 0.0000000000000000000, 1.000000000000000000 ) ) ;
#185 = EDGE_CURVE ( 'NONE', #9, #85, #115, .T. ) ;
#186 = LOCAL_TIME ( 16, 9, 20.00000000000000000, #179 ) ;
#187 = ORIENTED_EDGE ( 'NONE', *, *, #37, .F. ) ;
#188 = CC_DESIGN_DATE_AND_TIME_ASSIGNMENT ( #113, #233, ( #164 ) ) ;
#189 = CALENDAR_DATE ( 2017, 1, 5 ) ;
#190 = EDGE_CURVE ( 'NONE', #85, #58, #208, .T. ) ;
#191 = APPROVAL_ROLE ( '' ) ;
#192 = CARTESIAN_POINT ( 'NONE',  ( -25.00000000000000700, 25.00000000000000000, 1.000000000000000000 ) ) ;
#193 = CARTESIAN_POINT ( 'NONE',  ( -25.00000000000000000, -25.00000000000000000, 1.000000000000000000 ) ) ;
#194 = CARTESIAN_POINT ( 'NONE',  ( 24.99999999999999300, 25.00000000000000000, 1.000000000000000000 ) ) ;
#195 = CARTESIAN_POINT ( 'NONE',  ( 24.99999999999999300, 25.00000000000000000, -1.000000000000000000 ) ) ;
#196 = PRODUCT_DEFINITION ( 'UNKNOWN', '', #110, #177 ) ;
#197 = DIRECTION ( 'NONE',  ( -0.0000000000000000000, -0.0000000000000000000, -1.000000000000000000 ) ) ;
#198 = DIRECTION ( 'NONE',  ( -1.000000000000000000, -0.0000000000000000000, -0.0000000000000000000 ) ) ;
#199 = APPROVAL ( #103, 'UNSPECIFIED' ) ;
#200 = EDGE_LOOP ( 'NONE', ( #26, #73, #111, #4 ) ) ;
#201 = VECTOR ( 'NONE', #216, 1000.000000000000000 ) ;
#202 = AXIS2_PLACEMENT_3D ( 'NONE', #230, #39, #46 ) ;
#203 = PERSON ( 'UNSPECIFIED', 'UNSPECIFIED', 'UNSPECIFIED', ('UNSPECIFIED'), ('UNSPECIFIED'), ('UNSPECIFIED') ) ;
#204 = DATE_AND_TIME ( #189, #186 ) ;
#205 = EDGE_LOOP ( 'NONE', ( #81, #135, #129, #223 ) ) ;
#206 =( GEOMETRIC_REPRESENTATION_CONTEXT ( 3 ) GLOBAL_UNCERTAINTY_ASSIGNED_CONTEXT ( ( #224 ) ) GLOBAL_UNIT_ASSIGNED_CONTEXT ( ( #212, #138, #105 ) ) REPRESENTATION_CONTEXT ( 'NONE', 'WORKASPACE' ) );
#207 = ORIENTED_EDGE ( 'NONE', *, *, #76, .T. ) ;
#208 = LINE ( 'NONE', #126, #201 ) ;
#209 = APPROVAL_ROLE ( '' ) ;
#210 = APPLICATION_PROTOCOL_DEFINITION ( 'international standard', 'config_control_design', 1994, #104 ) ;
#211 = LINE ( 'NONE', #66, #227 ) ;
#212 =( LENGTH_UNIT ( ) NAMED_UNIT ( * ) SI_UNIT ( .MILLI., .METRE. ) );
#213 = EDGE_CURVE ( 'NONE', #220, #217, #75, .T. ) ;
#214 = CARTESIAN_POINT ( 'NONE',  ( 0.0000000000000000000, 0.0000000000000000000, 1.000000000000000000 ) ) ;
#215 = CARTESIAN_POINT ( 'NONE',  ( 25.00000000000000000, -25.00000000000000000, 1.000000000000000000 ) ) ;
#216 = DIRECTION ( 'NONE',  ( 1.387778780781445700E-016, -1.000000000000000000, 0.0000000000000000000 ) ) ;
#217 = VERTEX_POINT ( 'NONE', #22 ) ;
#218 = APPROVAL_PERSON_ORGANIZATION ( #51, #80, #191 ) ;
#219 = CC_DESIGN_APPROVAL ( #199, ( #164 ) ) ;
#220 = VERTEX_POINT ( 'NONE', #40 ) ;
#221 = VECTOR ( 'NONE', #198, 1000.000000000000000 ) ;
#222 = AXIS2_PLACEMENT_3D ( 'NONE', #1, #127, #141 ) ;
#223 = ORIENTED_EDGE ( 'NONE', *, *, #185, .F. ) ;
#224 = UNCERTAINTY_MEASURE_WITH_UNIT (LENGTH_MEASURE( 1.000000000000000100E-005 ), #212, 'distance_accuracy_value', 'NONE');
#225 = ADVANCED_FACE ( 'NONE', ( #132 ), #124, .F. ) ;
#226 = FACE_OUTER_BOUND ( 'NONE', #200, .T. ) ;
#227 = VECTOR ( 'NONE', #178, 1000.000000000000000 ) ;
#228 = CARTESIAN_POINT ( 'NONE',  ( 0.0000000000000000000, 0.0000000000000000000, -1.000000000000000000 ) ) ;
#229 = ORIENTED_EDGE ( 'NONE', *, *, #56, .T. ) ;
#230 = CARTESIAN_POINT ( 'NONE',  ( 24.99999999999999300, 25.00000000000000000, 1.000000000000000000 ) ) ;
#231 = CC_DESIGN_SECURITY_CLASSIFICATION ( #164, ( #110 ) ) ;
#232 = COORDINATED_UNIVERSAL_TIME_OFFSET ( 5, 0, .BEHIND. ) ;
#233 = DATE_TIME_ROLE ( 'classification_date' ) ;
#234 = ORIENTED_EDGE ( 'NONE', *, *, #29, .T. ) ;
#235 = VECTOR ( 'NONE', #117, 1000.000000000000000 ) ;
#236 = PERSON_AND_ORGANIZATION ( #203, #144 ) ;
#237 = PERSON_AND_ORGANIZATION_ROLE ( 'design_owner' ) ;
ENDSEC;
END-ISO-10303-21;
