ISO-10303-21;
HEADER;
FILE_DESCRIPTION (( 'STEP AP203' ),
    '1' );
FILE_NAME ('Web Model 14955_14955.step',
    '2021-06-14T15:19:47',
    ( '' ),
    ( '' ),
    'SwSTEP 2.0',
    'SolidWorks 2018',
    '' );
FILE_SCHEMA (( 'CONFIG_CONTROL_DESIGN' ));
ENDSEC;

DATA;
#1 = AXIS2_PLACEMENT_3D ( 'NONE', #61, #24, #47 ) ;
#2 = PERSON_AND_ORGANIZATION ( #104, #106 ) ;
#3 = VERTEX_POINT ( 'NONE', #96 ) ;
#4 = CC_DESIGN_APPROVAL ( #111, ( #81 ) ) ;
#5 = DIRECTION ( 'NONE',  ( -1.000000000000000000, -0.000000000000000000, -0.000000000000000000 ) ) ;
#6 = PERSON_AND_ORGANIZATION ( #104, #106 ) ;
#7 = CIRCLE ( 'NONE', #152, 2.499999999999998668 ) ;
#8 = DIRECTION ( 'NONE',  ( 1.000000000000000000, 0.000000000000000000, 0.000000000000000000 ) ) ;
#9 = CARTESIAN_POINT ( 'NONE',  ( 0.5000000000000000000, 0.000000000000000000, 0.000000000000000000 ) ) ;
#10 = CARTESIAN_POINT ( 'NONE',  ( -0.5000000000000000000, 0.000000000000000000, 0.000000000000000000 ) ) ;
#11 = EDGE_LOOP ( 'NONE', ( #131, #82 ) ) ;
#12 = PERSON_AND_ORGANIZATION_ROLE ( 'design_owner' ) ;
#13 = APPLICATION_CONTEXT ( 'configuration controlled 3d designs of mechanical parts and assemblies' ) ;
#14 = APPROVAL_PERSON_ORGANIZATION ( #146, #111, #70 ) ;
#15 = AXIS2_PLACEMENT_3D ( 'NONE', #9, #31, #80 ) ;
#16 = ORIENTED_EDGE ( 'NONE', *, *, #138, .F. ) ;
#17 = DIRECTION ( 'NONE',  ( 0.000000000000000000, 0.000000000000000000, -1.000000000000000000 ) ) ;
#18 = CYLINDRICAL_SURFACE ( 'NONE', #15, 2.499999999999998668 ) ;
#19 = CC_DESIGN_PERSON_AND_ORGANIZATION_ASSIGNMENT ( #164, #12, ( #173 ) ) ;
#20 = LOCAL_TIME ( 11, 19, 47.00000000000000000, #92 ) ;
#21 = CIRCLE ( 'NONE', #51, 2.499999999999998668 ) ;
#22 = CARTESIAN_POINT ( 'NONE',  ( 0.5000000000000000000, 0.000000000000000000, 2.499999999999998668 ) ) ;
#23 = APPROVAL_STATUS ( 'not_yet_approved' ) ;
#24 = DIRECTION ( 'NONE',  ( 1.000000000000000000, 0.000000000000000000, 0.000000000000000000 ) ) ;
#25 = COORDINATED_UNIVERSAL_TIME_OFFSET ( 5, 0, .BEHIND. ) ;
#26 = ORIENTED_EDGE ( 'NONE', *, *, #97, .T. ) ;
#27 = APPROVAL ( #118, 'UNSPECIFIED' ) ;
#28 = CALENDAR_DATE ( 2021, 14, 6 ) ;
#29 = EDGE_LOOP ( 'NONE', ( #16, #58 ) ) ;
#30 = ADVANCED_FACE ( 'NONE', ( #108 ), #34, .F. ) ;
#31 = DIRECTION ( 'NONE',  ( -1.000000000000000000, -0.000000000000000000, -0.000000000000000000 ) ) ;
#32 = ADVANCED_FACE ( 'NONE', ( #76 ), #18, .T. ) ;
#33 = CARTESIAN_POINT ( 'NONE',  ( 0.5000000000000000000, 3.061616997868381662E-16, -2.499999999999998668 ) ) ;
#34 = PLANE ( 'NONE',  #117 ) ;
#35 = COORDINATED_UNIVERSAL_TIME_OFFSET ( 5, 0, .BEHIND. ) ;
#36 = LINE ( 'NONE', #145, #54 ) ;
#37 = APPROVAL_ROLE ( '' ) ;
#38 = APPLICATION_PROTOCOL_DEFINITION ( 'international standard', 'config_control_design', 1994, #13 ) ;
#39 = PERSON_AND_ORGANIZATION_ROLE ( 'design_supplier' ) ;
#40 = EDGE_CURVE ( 'NONE', #154, #107, #21, .T. ) ;
#41 = APPROVAL_DATE_TIME ( #66, #27 ) ;
#42 = FACE_OUTER_BOUND ( 'NONE', #11, .T. ) ;
#43 = CLOSED_SHELL ( 'NONE', ( #141, #32, #127, #30 ) ) ;
#44 = MANIFOLD_SOLID_BREP ( 'Boss-Extrude1', #43 ) ;
#45 = VECTOR ( 'NONE', #5, 1000.000000000000000 ) ;
#46 = AXIS2_PLACEMENT_3D ( 'NONE', #136, #52, #98 ) ;
#47 = DIRECTION ( 'NONE',  ( 0.000000000000000000, 0.000000000000000000, -1.000000000000000000 ) ) ;
#48 = DATE_TIME_ROLE ( 'classification_date' ) ;
#49 = ORIENTED_EDGE ( 'NONE', *, *, #55, .F. ) ;
#50 = APPLICATION_PROTOCOL_DEFINITION ( 'international standard', 'config_control_design', 1994, #115 ) ;
#51 = AXIS2_PLACEMENT_3D ( 'NONE', #143, #156, #69 ) ;
#52 = DIRECTION ( 'NONE',  ( 0.000000000000000000, 0.000000000000000000, 1.000000000000000000 ) ) ;
#53 = UNCERTAINTY_MEASURE_WITH_UNIT (LENGTH_MEASURE( 1.000000000000000082E-05 ), #170, 'distance_accuracy_value', 'NONE');
#54 = VECTOR ( 'NONE', #83, 1000.000000000000000 ) ;
#55 = EDGE_CURVE ( 'NONE', #154, #75, #123, .T. ) ;
#56 = CALENDAR_DATE ( 2021, 14, 6 ) ;
#57 = EDGE_LOOP ( 'NONE', ( #49, #121, #26, #125 ) ) ;
#58 = ORIENTED_EDGE ( 'NONE', *, *, #99, .F. ) ;
#59 = DIRECTION ( 'NONE',  ( 0.000000000000000000, 0.000000000000000000, 1.000000000000000000 ) ) ;
#60 = PERSON_AND_ORGANIZATION ( #104, #106 ) ;
#61 = CARTESIAN_POINT ( 'NONE',  ( 0.5000000000000000000, 0.000000000000000000, 0.000000000000000000 ) ) ;
#62 = CC_DESIGN_PERSON_AND_ORGANIZATION_ASSIGNMENT ( #139, #101, ( #81 ) ) ;
#63 = LOCAL_TIME ( 11, 19, 47.00000000000000000, #94 ) ;
#64 = CALENDAR_DATE ( 2021, 14, 6 ) ;
#65 = CC_DESIGN_APPROVAL ( #27, ( #162 ) ) ;
#66 = DATE_AND_TIME ( #64, #63 ) ;
#67 = ORIENTED_EDGE ( 'NONE', *, *, #99, .T. ) ;
#68 = APPROVAL_DATE_TIME ( #102, #72 ) ;
#69 = DIRECTION ( 'NONE',  ( 0.000000000000000000, 0.000000000000000000, -1.000000000000000000 ) ) ;
#70 = APPROVAL_ROLE ( '' ) ;
#71 =( NAMED_UNIT ( * ) SI_UNIT ( $, .STERADIAN. ) SOLID_ANGLE_UNIT ( ) );
#72 = APPROVAL ( #23, 'UNSPECIFIED' ) ;
#73 = CARTESIAN_POINT ( 'NONE',  ( 0.5000000000000000000, 0.000000000000000000, 0.000000000000000000 ) ) ;
#74 = DESIGN_CONTEXT ( 'detailed design', #13, 'design' ) ;
#75 = VERTEX_POINT ( 'NONE', #142 ) ;
#76 = FACE_OUTER_BOUND ( 'NONE', #57, .T. ) ;
#77 =( GEOMETRIC_REPRESENTATION_CONTEXT ( 3 ) GLOBAL_UNCERTAINTY_ASSIGNED_CONTEXT ( ( #53 ) ) GLOBAL_UNIT_ASSIGNED_CONTEXT ( ( #170, #88, #71 ) ) REPRESENTATION_CONTEXT ( 'NONE', 'WORKASPACE' ) );
#78 = CC_DESIGN_PERSON_AND_ORGANIZATION_ASSIGNMENT ( #2, #132, ( #129 ) ) ;
#79 = ORIENTED_EDGE ( 'NONE', *, *, #97, .F. ) ;
#80 = DIRECTION ( 'NONE',  ( 0.000000000000000000, 0.000000000000000000, 1.000000000000000000 ) ) ;
#81 = PRODUCT_DEFINITION_FORMATION_WITH_SPECIFIED_SOURCE ( 'ANY', '', #173, .NOT_KNOWN. ) ;
#82 = ORIENTED_EDGE ( 'NONE', *, *, #40, .T. ) ;
#83 = DIRECTION ( 'NONE',  ( -1.000000000000000000, -0.000000000000000000, -0.000000000000000000 ) ) ;
#84 = CALENDAR_DATE ( 2021, 14, 6 ) ;
#85 = SECURITY_CLASSIFICATION_LEVEL ( 'unclassified' ) ;
#86 = MECHANICAL_CONTEXT ( 'NONE', #115, 'mechanical' ) ;
#87 = DIRECTION ( 'NONE',  ( 1.000000000000000000, 0.000000000000000000, 0.000000000000000000 ) ) ;
#88 =( NAMED_UNIT ( * ) PLANE_ANGLE_UNIT ( ) SI_UNIT ( $, .RADIAN. ) );
#89 = CIRCLE ( 'NONE', #1, 2.499999999999998668 ) ;
#90 = LOCAL_TIME ( 11, 19, 47.00000000000000000, #137 ) ;
#91 = ORIENTED_EDGE ( 'NONE', *, *, #40, .F. ) ;
#92 = COORDINATED_UNIVERSAL_TIME_OFFSET ( 5, 0, .BEHIND. ) ;
#93 = PRODUCT_DEFINITION_SHAPE ( 'NONE', 'NONE',  #162 ) ;
#94 = COORDINATED_UNIVERSAL_TIME_OFFSET ( 5, 0, .BEHIND. ) ;
#95 = APPROVAL_DATE_TIME ( #109, #111 ) ;
#96 = CARTESIAN_POINT ( 'NONE',  ( -0.5000000000000000000, 0.000000000000000000, 2.499999999999998668 ) ) ;
#97 = EDGE_CURVE ( 'NONE', #107, #3, #36, .T. ) ;
#98 = DIRECTION ( 'NONE',  ( 1.000000000000000000, 0.000000000000000000, 0.000000000000000000 ) ) ;
#99 = EDGE_CURVE ( 'NONE', #75, #3, #7, .T. ) ;
#100 = APPROVAL_STATUS ( 'not_yet_approved' ) ;
#101 = PERSON_AND_ORGANIZATION_ROLE ( 'creator' ) ;
#102 = DATE_AND_TIME ( #56, #90 ) ;
#103 = CARTESIAN_POINT ( 'NONE',  ( 0.5000000000000000000, 0.000000000000000000, 0.000000000000000000 ) ) ;
#104 = PERSON ( 'UNSPECIFIED', 'UNSPECIFIED', 'UNSPECIFIED', ('UNSPECIFIED'), ('UNSPECIFIED'), ('UNSPECIFIED') ) ;
#105 = PRODUCT_RELATED_PRODUCT_CATEGORY ( 'detail', '', ( #173 ) ) ;
#106 = ORGANIZATION ( 'UNSPECIFIED', 'UNSPECIFIED', '' ) ;
#107 = VERTEX_POINT ( 'NONE', #22 ) ;
#108 = FACE_OUTER_BOUND ( 'NONE', #29, .T. ) ;
#109 = DATE_AND_TIME ( #84, #153 ) ;
#110 = CIRCLE ( 'NONE', #112, 2.499999999999998668 ) ;
#111 = APPROVAL ( #100, 'UNSPECIFIED' ) ;
#112 = AXIS2_PLACEMENT_3D ( 'NONE', #151, #159, #133 ) ;
#113 = ORIENTED_EDGE ( 'NONE', *, *, #55, .T. ) ;
#114 = CC_DESIGN_SECURITY_CLASSIFICATION ( #129, ( #81 ) ) ;
#115 = APPLICATION_CONTEXT ( 'configuration controlled 3d designs of mechanical parts and assemblies' ) ;
#116 = PERSON_AND_ORGANIZATION_ROLE ( 'creator' ) ;
#117 = AXIS2_PLACEMENT_3D ( 'NONE', #167, #8, #17 ) ;
#118 = APPROVAL_STATUS ( 'not_yet_approved' ) ;
#119 = DIRECTION ( 'NONE',  ( -1.000000000000000000, -0.000000000000000000, -0.000000000000000000 ) ) ;
#120 = LOCAL_TIME ( 11, 19, 47.00000000000000000, #35 ) ;
#121 = ORIENTED_EDGE ( 'NONE', *, *, #140, .F. ) ;
#122 = CC_DESIGN_PERSON_AND_ORGANIZATION_ASSIGNMENT ( #60, #39, ( #81 ) ) ;
#123 = LINE ( 'NONE', #33, #45 ) ;
#124 = CALENDAR_DATE ( 2021, 14, 6 ) ;
#125 = ORIENTED_EDGE ( 'NONE', *, *, #138, .T. ) ;
#126 = CC_DESIGN_APPROVAL ( #72, ( #129 ) ) ;
#127 = ADVANCED_FACE ( 'NONE', ( #42 ), #148, .T. ) ;
#128 = ADVANCED_BREP_SHAPE_REPRESENTATION ( 'Web Model 14955_14955', ( #44, #46 ), #77 ) ;
#129 = SECURITY_CLASSIFICATION ( '', '', #85 ) ;
#130 = DATE_AND_TIME ( #28, #20 ) ;
#131 = ORIENTED_EDGE ( 'NONE', *, *, #140, .T. ) ;
#132 = PERSON_AND_ORGANIZATION_ROLE ( 'classification_officer' ) ;
#133 = DIRECTION ( 'NONE',  ( 0.000000000000000000, 0.000000000000000000, -1.000000000000000000 ) ) ;
#134 = DIRECTION ( 'NONE',  ( 0.000000000000000000, 0.000000000000000000, -1.000000000000000000 ) ) ;
#135 = PERSON_AND_ORGANIZATION ( #104, #106 ) ;
#136 = CARTESIAN_POINT ( 'NONE',  ( 0.000000000000000000, 0.000000000000000000, 0.000000000000000000 ) ) ;
#137 = COORDINATED_UNIVERSAL_TIME_OFFSET ( 5, 0, .BEHIND. ) ;
#138 = EDGE_CURVE ( 'NONE', #3, #75, #110, .T. ) ;
#139 = PERSON_AND_ORGANIZATION ( #104, #106 ) ;
#140 = EDGE_CURVE ( 'NONE', #107, #154, #89, .T. ) ;
#141 = ADVANCED_FACE ( 'NONE', ( #147 ), #161, .T. ) ;
#142 = CARTESIAN_POINT ( 'NONE',  ( -0.5000000000000000000, 3.061616997868381662E-16, -2.499999999999998668 ) ) ;
#143 = CARTESIAN_POINT ( 'NONE',  ( 0.5000000000000000000, 0.000000000000000000, 0.000000000000000000 ) ) ;
#144 = AXIS2_PLACEMENT_3D ( 'NONE', #73, #160, #171 ) ;
#145 = CARTESIAN_POINT ( 'NONE',  ( 0.5000000000000000000, 0.000000000000000000, 2.499999999999998668 ) ) ;
#146 = PERSON_AND_ORGANIZATION ( #104, #106 ) ;
#147 = FACE_OUTER_BOUND ( 'NONE', #150, .T. ) ;
#148 = PLANE ( 'NONE',  #144 ) ;
#149 = APPROVAL_ROLE ( '' ) ;
#150 = EDGE_LOOP ( 'NONE', ( #91, #113, #67, #79 ) ) ;
#151 = CARTESIAN_POINT ( 'NONE',  ( -0.5000000000000000000, 0.000000000000000000, 0.000000000000000000 ) ) ;
#152 = AXIS2_PLACEMENT_3D ( 'NONE', #10, #87, #134 ) ;
#153 = LOCAL_TIME ( 11, 19, 47.00000000000000000, #25 ) ;
#154 = VERTEX_POINT ( 'NONE', #169 ) ;
#155 = CC_DESIGN_DATE_AND_TIME_ASSIGNMENT ( #130, #48, ( #129 ) ) ;
#156 = DIRECTION ( 'NONE',  ( 1.000000000000000000, 0.000000000000000000, 0.000000000000000000 ) ) ;
#157 = DATE_TIME_ROLE ( 'creation_date' ) ;
#158 = CC_DESIGN_DATE_AND_TIME_ASSIGNMENT ( #175, #157, ( #162 ) ) ;
#159 = DIRECTION ( 'NONE',  ( 1.000000000000000000, 0.000000000000000000, 0.000000000000000000 ) ) ;
#160 = DIRECTION ( 'NONE',  ( 1.000000000000000000, 0.000000000000000000, 0.000000000000000000 ) ) ;
#161 = CYLINDRICAL_SURFACE ( 'NONE', #165, 2.499999999999998668 ) ;
#162 = PRODUCT_DEFINITION ( 'UNKNOWN', '', #81, #74 ) ;
#163 = APPROVAL_PERSON_ORGANIZATION ( #135, #27, #37 ) ;
#164 = PERSON_AND_ORGANIZATION ( #104, #106 ) ;
#165 = AXIS2_PLACEMENT_3D ( 'NONE', #103, #119, #59 ) ;
#166 = PERSON_AND_ORGANIZATION ( #104, #106 ) ;
#167 = CARTESIAN_POINT ( 'NONE',  ( -0.5000000000000000000, 0.000000000000000000, 0.000000000000000000 ) ) ;
#168 = APPROVAL_PERSON_ORGANIZATION ( #166, #72, #149 ) ;
#169 = CARTESIAN_POINT ( 'NONE',  ( 0.5000000000000000000, 3.061616997868381662E-16, -2.499999999999998668 ) ) ;
#170 =( LENGTH_UNIT ( ) NAMED_UNIT ( * ) SI_UNIT ( .MILLI., .METRE. ) );
#171 = DIRECTION ( 'NONE',  ( 0.000000000000000000, 0.000000000000000000, -1.000000000000000000 ) ) ;
#172 = SHAPE_DEFINITION_REPRESENTATION ( #93, #128 ) ;
#173 = PRODUCT ( 'Web Model 14955_14955', 'Web Model 14955_14955', '', ( #86 ) ) ;
#174 = CC_DESIGN_PERSON_AND_ORGANIZATION_ASSIGNMENT ( #6, #116, ( #162 ) ) ;
#175 = DATE_AND_TIME ( #124, #120 ) ;
ENDSEC;
END-ISO-10303-21;
