ISO-10303-21;
HEADER;
FILE_DESCRIPTION (( 'STEP AP203' ),
    '1' );
FILE_NAME ('Web Model 39238_39238.step',
    '2018-07-25T17:13:08',
    ( '' ),
    ( '' ),
    'SwSTEP 2.0',
    'SolidWorks 2016',
    '' );
FILE_SCHEMA (( 'CONFIG_CONTROL_DESIGN' ));
ENDSEC;

DATA;
#1 = DIRECTION ( 'NONE',  ( -0.0000000000000000000, -0.0000000000000000000, -1.000000000000000000 ) ) ;
#2 = VECTOR ( 'NONE', #160, 1000.000000000000000 ) ;
#3 = DIRECTION ( 'NONE',  ( 0.0000000000000000000, 0.0000000000000000000, 1.000000000000000000 ) ) ;
#4 = APPLICATION_PROTOCOL_DEFINITION ( 'international standard', 'config_control_design', 1994, #65 ) ;
#5 = PERSON_AND_ORGANIZATION ( #153, #94 ) ;
#6 = VERTEX_POINT ( 'NONE', #173 ) ;
#7 = PERSON_AND_ORGANIZATION_ROLE ( 'design_supplier' ) ;
#8 = CC_DESIGN_SECURITY_CLASSIFICATION ( #10, ( #159 ) ) ;
#9 =( NAMED_UNIT ( * ) PLANE_ANGLE_UNIT ( ) SI_UNIT ( $, .RADIAN. ) );
#10 = SECURITY_CLASSIFICATION ( '', '', #164 ) ;
#11 = LINE ( 'NONE', #47, #2 ) ;
#12 = CC_DESIGN_DATE_AND_TIME_ASSIGNMENT ( #129, #124, ( #142 ) ) ;
#13 = LOCAL_TIME ( 13, 13, 8.000000000000000000, #113 ) ;
#14 = LOCAL_TIME ( 13, 13, 8.000000000000000000, #19 ) ;
#15 = ADVANCED_FACE ( 'NONE', ( #125 ), #105, .T. ) ;
#16 = DIRECTION ( 'NONE',  ( 1.000000000000000000, 0.0000000000000000000, 0.0000000000000000000 ) ) ;
#17 = SHAPE_DEFINITION_REPRESENTATION ( #115, #32 ) ;
#18 = CARTESIAN_POINT ( 'NONE',  ( 0.0000000000000000000, 0.0000000000000000000, 0.0000000000000000000 ) ) ;
#19 = COORDINATED_UNIVERSAL_TIME_OFFSET ( 5, 0, .BEHIND. ) ;
#20 = EDGE_LOOP ( 'NONE', ( #132, #46 ) ) ;
#21 = AXIS2_PLACEMENT_3D ( 'NONE', #92, #31, #28 ) ;
#22 = APPROVAL_PERSON_ORGANIZATION ( #59, #145, #108 ) ;
#23 = CARTESIAN_POINT ( 'NONE',  ( -17.50000000000000400, 0.0000000000000000000, -0.5000000000000000000 ) ) ;
#24 = ORIENTED_EDGE ( 'NONE', *, *, #170, .F. ) ;
#25 = CC_DESIGN_PERSON_AND_ORGANIZATION_ASSIGNMENT ( #27, #126, ( #142 ) ) ;
#26 = ORIENTED_EDGE ( 'NONE', *, *, #106, .T. ) ;
#27 = PERSON_AND_ORGANIZATION ( #153, #94 ) ;
#28 = DIRECTION ( 'NONE',  ( 1.000000000000000000, 0.0000000000000000000, 0.0000000000000000000 ) ) ;
#29 = CIRCLE ( 'NONE', #21, 17.50000000000000400 ) ;
#30 = DIRECTION ( 'NONE',  ( 1.000000000000000000, 0.0000000000000000000, 0.0000000000000000000 ) ) ;
#31 = DIRECTION ( 'NONE',  ( 0.0000000000000000000, 0.0000000000000000000, 1.000000000000000000 ) ) ;
#32 = ADVANCED_BREP_SHAPE_REPRESENTATION ( 'Web Model 39238_39238', ( #39, #45 ), #119 ) ;
#33 = PERSON_AND_ORGANIZATION_ROLE ( 'design_owner' ) ;
#34 = CIRCLE ( 'NONE', #131, 17.50000000000000400 ) ;
#35 = AXIS2_PLACEMENT_3D ( 'NONE', #88, #102, #155 ) ;
#36 = UNCERTAINTY_MEASURE_WITH_UNIT (LENGTH_MEASURE( 1.000000000000000100E-005 ), #44, 'distance_accuracy_value', 'NONE');
#37 = VERTEX_POINT ( 'NONE', #23 ) ;
#38 = ORIENTED_EDGE ( 'NONE', *, *, #114, .F. ) ;
#39 = MANIFOLD_SOLID_BREP ( 'Boss-Extrude1', #73 ) ;
#40 = DIRECTION ( 'NONE',  ( 0.0000000000000000000, 0.0000000000000000000, 1.000000000000000000 ) ) ;
#41 = COORDINATED_UNIVERSAL_TIME_OFFSET ( 5, 0, .BEHIND. ) ;
#42 = AXIS2_PLACEMENT_3D ( 'NONE', #134, #107, #61 ) ;
#43 = CYLINDRICAL_SURFACE ( 'NONE', #42, 17.50000000000000400 ) ;
#44 =( LENGTH_UNIT ( ) NAMED_UNIT ( * ) SI_UNIT ( .MILLI., .METRE. ) );
#45 = AXIS2_PLACEMENT_3D ( 'NONE', #18, #149, #30 ) ;
#46 = ORIENTED_EDGE ( 'NONE', *, *, #85, .F. ) ;
#47 = CARTESIAN_POINT ( 'NONE',  ( -17.50000000000000400, 0.0000000000000000000, 0.5000000000000000000 ) ) ;
#48 = ADVANCED_FACE ( 'NONE', ( #99 ), #128, .T. ) ;
#49 = DESIGN_CONTEXT ( 'detailed design', #65, 'design' ) ;
#50 = CC_DESIGN_DATE_AND_TIME_ASSIGNMENT ( #100, #93, ( #10 ) ) ;
#51 = VERTEX_POINT ( 'NONE', #101 ) ;
#52 = CARTESIAN_POINT ( 'NONE',  ( 0.0000000000000000000, 0.0000000000000000000, 0.5000000000000000000 ) ) ;
#53 = APPLICATION_CONTEXT ( 'configuration controlled 3d designs of mechanical parts and assemblies' ) ;
#54 = DIRECTION ( 'NONE',  ( 1.000000000000000000, 0.0000000000000000000, 0.0000000000000000000 ) ) ;
#55 = EDGE_LOOP ( 'NONE', ( #162, #135 ) ) ;
#56 = PERSON_AND_ORGANIZATION ( #153, #94 ) ;
#57 = PLANE ( 'NONE',  #140 ) ;
#58 = ADVANCED_FACE ( 'NONE', ( #78 ), #57, .F. ) ;
#59 = PERSON_AND_ORGANIZATION ( #153, #94 ) ;
#60 = PERSON_AND_ORGANIZATION ( #153, #94 ) ;
#61 = DIRECTION ( 'NONE',  ( -1.000000000000000000, 0.0000000000000000000, 0.0000000000000000000 ) ) ;
#62 = LINE ( 'NONE', #75, #146 ) ;
#63 = APPROVAL_ROLE ( '' ) ;
#64 = APPROVAL ( #138, 'UNSPECIFIED' ) ;
#65 = APPLICATION_CONTEXT ( 'configuration controlled 3d designs of mechanical parts and assemblies' ) ;
#66 = EDGE_CURVE ( 'NONE', #6, #37, #11, .T. ) ;
#67 = CC_DESIGN_PERSON_AND_ORGANIZATION_ASSIGNMENT ( #60, #33, ( #89 ) ) ;
#68 = APPROVAL_PERSON_ORGANIZATION ( #171, #174, #81 ) ;
#69 = EDGE_LOOP ( 'NONE', ( #38, #26, #175, #84 ) ) ;
#70 = PRODUCT_RELATED_PRODUCT_CATEGORY ( 'detail', '', ( #89 ) ) ;
#71 = CARTESIAN_POINT ( 'NONE',  ( 0.0000000000000000000, 0.0000000000000000000, 0.5000000000000000000 ) ) ;
#72 = CALENDAR_DATE ( 2018, 25, 7 ) ;
#73 = CLOSED_SHELL ( 'NONE', ( #130, #48, #15, #58 ) ) ;
#74 = CALENDAR_DATE ( 2018, 25, 7 ) ;
#75 = CARTESIAN_POINT ( 'NONE',  ( 17.50000000000000400, 2.143131898507868600E-015, 0.5000000000000000000 ) ) ;
#76 = CARTESIAN_POINT ( 'NONE',  ( 0.0000000000000000000, 0.0000000000000000000, -0.5000000000000000000 ) ) ;
#77 = CALENDAR_DATE ( 2018, 25, 7 ) ;
#78 = FACE_OUTER_BOUND ( 'NONE', #20, .T. ) ;
#79 = PERSON_AND_ORGANIZATION_ROLE ( 'creator' ) ;
#80 = APPROVAL_STATUS ( 'not_yet_approved' ) ;
#81 = APPROVAL_ROLE ( '' ) ;
#82 = DATE_AND_TIME ( #111, #13 ) ;
#83 = APPLICATION_PROTOCOL_DEFINITION ( 'international standard', 'config_control_design', 1994, #53 ) ;
#84 = ORIENTED_EDGE ( 'NONE', *, *, #66, .F. ) ;
#85 = EDGE_CURVE ( 'NONE', #51, #37, #121, .T. ) ;
#86 = DIRECTION ( 'NONE',  ( 1.000000000000000000, 0.0000000000000000000, -0.0000000000000000000 ) ) ;
#87 = ORIENTED_EDGE ( 'NONE', *, *, #66, .T. ) ;
#88 = CARTESIAN_POINT ( 'NONE',  ( 0.0000000000000000000, 0.0000000000000000000, 0.5000000000000000000 ) ) ;
#89 = PRODUCT ( 'Web Model 39238_39238', 'Web Model 39238_39238', '', ( #167 ) ) ;
#90 = LOCAL_TIME ( 13, 13, 8.000000000000000000, #169 ) ;
#91 = AXIS2_PLACEMENT_3D ( 'NONE', #122, #137, #97 ) ;
#92 = CARTESIAN_POINT ( 'NONE',  ( 0.0000000000000000000, 0.0000000000000000000, -0.5000000000000000000 ) ) ;
#93 = DATE_TIME_ROLE ( 'classification_date' ) ;
#94 = ORGANIZATION ( 'UNSPECIFIED', 'UNSPECIFIED', '' ) ;
#95 = APPROVAL_STATUS ( 'not_yet_approved' ) ;
#96 = CARTESIAN_POINT ( 'NONE',  ( 17.50000000000000400, 2.143131898507868600E-015, 0.5000000000000000000 ) ) ;
#97 = DIRECTION ( 'NONE',  ( 1.000000000000000000, 0.0000000000000000000, 0.0000000000000000000 ) ) ;
#98 = LOCAL_TIME ( 13, 13, 8.000000000000000000, #41 ) ;
#99 = FACE_OUTER_BOUND ( 'NONE', #117, .T. ) ;
#100 = DATE_AND_TIME ( #74, #14 ) ;
#101 = CARTESIAN_POINT ( 'NONE',  ( 17.50000000000000400, 2.143131898507868600E-015, -0.5000000000000000000 ) ) ;
#102 = DIRECTION ( 'NONE',  ( -0.0000000000000000000, -0.0000000000000000000, -1.000000000000000000 ) ) ;
#103 = APPROVAL_DATE_TIME ( #168, #174 ) ;
#104 = APPROVAL_PERSON_ORGANIZATION ( #152, #64, #63 ) ;
#105 = PLANE ( 'NONE',  #127 ) ;
#106 = EDGE_CURVE ( 'NONE', #158, #51, #62, .T. ) ;
#107 = DIRECTION ( 'NONE',  ( -0.0000000000000000000, -0.0000000000000000000, -1.000000000000000000 ) ) ;
#108 = APPROVAL_ROLE ( '' ) ;
#109 = CC_DESIGN_APPROVAL ( #64, ( #142 ) ) ;
#110 = AXIS2_PLACEMENT_3D ( 'NONE', #76, #3, #16 ) ;
#111 = CALENDAR_DATE ( 2018, 25, 7 ) ;
#112 = DATE_AND_TIME ( #148, #98 ) ;
#113 = COORDINATED_UNIVERSAL_TIME_OFFSET ( 5, 0, .BEHIND. ) ;
#114 = EDGE_CURVE ( 'NONE', #158, #6, #34, .T. ) ;
#115 = PRODUCT_DEFINITION_SHAPE ( 'NONE', 'NONE',  #142 ) ;
#116 = CC_DESIGN_PERSON_AND_ORGANIZATION_ASSIGNMENT ( #5, #79, ( #159 ) ) ;
#117 = EDGE_LOOP ( 'NONE', ( #165, #24, #87, #172 ) ) ;
#118 = CC_DESIGN_APPROVAL ( #174, ( #10 ) ) ;
#119 =( GEOMETRIC_REPRESENTATION_CONTEXT ( 3 ) GLOBAL_UNCERTAINTY_ASSIGNED_CONTEXT ( ( #36 ) ) GLOBAL_UNIT_ASSIGNED_CONTEXT ( ( #44, #9, #136 ) ) REPRESENTATION_CONTEXT ( 'NONE', 'WORKASPACE' ) );
#120 = APPROVAL_DATE_TIME ( #82, #145 ) ;
#121 = CIRCLE ( 'NONE', #110, 17.50000000000000400 ) ;
#122 = CARTESIAN_POINT ( 'NONE',  ( 0.0000000000000000000, 0.0000000000000000000, 0.5000000000000000000 ) ) ;
#123 = DIRECTION ( 'NONE',  ( 0.0000000000000000000, 0.0000000000000000000, 1.000000000000000000 ) ) ;
#124 = DATE_TIME_ROLE ( 'creation_date' ) ;
#125 = FACE_OUTER_BOUND ( 'NONE', #55, .T. ) ;
#126 = PERSON_AND_ORGANIZATION_ROLE ( 'creator' ) ;
#127 = AXIS2_PLACEMENT_3D ( 'NONE', #71, #144, #86 ) ;
#128 = CYLINDRICAL_SURFACE ( 'NONE', #35, 17.50000000000000400 ) ;
#129 = DATE_AND_TIME ( #77, #90 ) ;
#130 = ADVANCED_FACE ( 'NONE', ( #156 ), #43, .T. ) ;
#131 = AXIS2_PLACEMENT_3D ( 'NONE', #52, #123, #54 ) ;
#132 = ORIENTED_EDGE ( 'NONE', *, *, #161, .F. ) ;
#133 = CC_DESIGN_PERSON_AND_ORGANIZATION_ASSIGNMENT ( #147, #166, ( #10 ) ) ;
#134 = CARTESIAN_POINT ( 'NONE',  ( 0.0000000000000000000, 0.0000000000000000000, 0.5000000000000000000 ) ) ;
#135 = ORIENTED_EDGE ( 'NONE', *, *, #114, .T. ) ;
#136 =( NAMED_UNIT ( * ) SI_UNIT ( $, .STERADIAN. ) SOLID_ANGLE_UNIT ( ) );
#137 = DIRECTION ( 'NONE',  ( 0.0000000000000000000, 0.0000000000000000000, 1.000000000000000000 ) ) ;
#138 = APPROVAL_STATUS ( 'not_yet_approved' ) ;
#139 = CIRCLE ( 'NONE', #91, 17.50000000000000400 ) ;
#140 = AXIS2_PLACEMENT_3D ( 'NONE', #157, #40, #143 ) ;
#141 = APPROVAL_DATE_TIME ( #112, #64 ) ;
#142 = PRODUCT_DEFINITION ( 'UNKNOWN', '', #159, #49 ) ;
#143 = DIRECTION ( 'NONE',  ( 1.000000000000000000, 0.0000000000000000000, -0.0000000000000000000 ) ) ;
#144 = DIRECTION ( 'NONE',  ( 0.0000000000000000000, 0.0000000000000000000, 1.000000000000000000 ) ) ;
#145 = APPROVAL ( #95, 'UNSPECIFIED' ) ;
#146 = VECTOR ( 'NONE', #1, 1000.000000000000000 ) ;
#147 = PERSON_AND_ORGANIZATION ( #153, #94 ) ;
#148 = CALENDAR_DATE ( 2018, 25, 7 ) ;
#149 = DIRECTION ( 'NONE',  ( 0.0000000000000000000, 0.0000000000000000000, 1.000000000000000000 ) ) ;
#150 = COORDINATED_UNIVERSAL_TIME_OFFSET ( 5, 0, .BEHIND. ) ;
#151 = CC_DESIGN_PERSON_AND_ORGANIZATION_ASSIGNMENT ( #56, #7, ( #159 ) ) ;
#152 = PERSON_AND_ORGANIZATION ( #153, #94 ) ;
#153 = PERSON ( 'UNSPECIFIED', 'UNSPECIFIED', 'UNSPECIFIED', ('UNSPECIFIED'), ('UNSPECIFIED'), ('UNSPECIFIED') ) ;
#154 = LOCAL_TIME ( 13, 13, 8.000000000000000000, #150 ) ;
#155 = DIRECTION ( 'NONE',  ( -1.000000000000000000, 0.0000000000000000000, 0.0000000000000000000 ) ) ;
#156 = FACE_OUTER_BOUND ( 'NONE', #69, .T. ) ;
#157 = CARTESIAN_POINT ( 'NONE',  ( 0.0000000000000000000, 0.0000000000000000000, -0.5000000000000000000 ) ) ;
#158 = VERTEX_POINT ( 'NONE', #96 ) ;
#159 = PRODUCT_DEFINITION_FORMATION_WITH_SPECIFIED_SOURCE ( 'ANY', '', #89, .NOT_KNOWN. ) ;
#160 = DIRECTION ( 'NONE',  ( -0.0000000000000000000, -0.0000000000000000000, -1.000000000000000000 ) ) ;
#161 = EDGE_CURVE ( 'NONE', #37, #51, #29, .T. ) ;
#162 = ORIENTED_EDGE ( 'NONE', *, *, #170, .T. ) ;
#163 = CC_DESIGN_APPROVAL ( #145, ( #159 ) ) ;
#164 = SECURITY_CLASSIFICATION_LEVEL ( 'unclassified' ) ;
#165 = ORIENTED_EDGE ( 'NONE', *, *, #106, .F. ) ;
#166 = PERSON_AND_ORGANIZATION_ROLE ( 'classification_officer' ) ;
#167 = MECHANICAL_CONTEXT ( 'NONE', #53, 'mechanical' ) ;
#168 = DATE_AND_TIME ( #72, #154 ) ;
#169 = COORDINATED_UNIVERSAL_TIME_OFFSET ( 5, 0, .BEHIND. ) ;
#170 = EDGE_CURVE ( 'NONE', #6, #158, #139, .T. ) ;
#171 = PERSON_AND_ORGANIZATION ( #153, #94 ) ;
#172 = ORIENTED_EDGE ( 'NONE', *, *, #161, .T. ) ;
#173 = CARTESIAN_POINT ( 'NONE',  ( -17.50000000000000400, 0.0000000000000000000, 0.5000000000000000000 ) ) ;
#174 = APPROVAL ( #80, 'UNSPECIFIED' ) ;
#175 = ORIENTED_EDGE ( 'NONE', *, *, #85, .T. ) ;
ENDSEC;
END-ISO-10303-21;
