ISO-10303-21;
HEADER;
FILE_DESCRIPTION (( 'STEP AP203' ),
    '1' );
FILE_NAME ('Web Model 20159_20159.step',
    '2022-03-22T20:09:10',
    ( '' ),
    ( '' ),
    'SwSTEP 2.0',
    'SolidWorks 2021',
    '' );
FILE_SCHEMA (( 'CONFIG_CONTROL_DESIGN' ));
ENDSEC;

DATA;
#1 = PERSON_AND_ORGANIZATION_ROLE ( 'creator' ) ;
#2 = SHAPE_DEFINITION_REPRESENTATION ( #141, #73 ) ;
#3 = AXIS2_PLACEMENT_3D ( 'NONE', #93, #56, #157 ) ;
#4 = EDGE_CURVE ( 'NONE', #63, #129, #41, .T. ) ;
#5 = DIRECTION ( 'NONE',  ( 0.000000000000000000, 0.000000000000000000, 1.000000000000000000 ) ) ;
#6 = CARTESIAN_POINT ( 'NONE',  ( 0.000000000000000000, 0.000000000000000000, 2.000000000000000000 ) ) ;
#7 = CARTESIAN_POINT ( 'NONE',  ( -50.00000000000000000, 0.000000000000000000, 2.000000000000000000 ) ) ;
#8 = DIRECTION ( 'NONE',  ( 1.000000000000000000, 0.000000000000000000, 0.000000000000000000 ) ) ;
#9 = MANIFOLD_SOLID_BREP ( 'Boss-Extrude1', #162 ) ;
#10 = ADVANCED_FACE ( 'NONE', ( #166 ), #95, .T. ) ;
#11 = CALENDAR_DATE ( 2022, 22, 3 ) ;
#12 = PRODUCT_RELATED_PRODUCT_CATEGORY ( 'detail', '', ( #111 ) ) ;
#13 = DATE_AND_TIME ( #102, #148 ) ;
#14 = CC_DESIGN_APPROVAL ( #100, ( #61 ) ) ;
#15 = APPROVAL_PERSON_ORGANIZATION ( #137, #154, #30 ) ;
#16 = VERTEX_POINT ( 'NONE', #40 ) ;
#17 = DIRECTION ( 'NONE',  ( 0.000000000000000000, 0.000000000000000000, 1.000000000000000000 ) ) ;
#18 = ORIENTED_EDGE ( 'NONE', *, *, #59, .T. ) ;
#19 = CC_DESIGN_PERSON_AND_ORGANIZATION_ASSIGNMENT ( #175, #45, ( #29 ) ) ;
#20 = LOCAL_TIME ( 16, 9, 10.00000000000000000, #60 ) ;
#21 = APPROVAL_DATE_TIME ( #105, #156 ) ;
#22 = DATE_AND_TIME ( #132, #20 ) ;
#23 = VECTOR ( 'NONE', #143, 1000.000000000000000 ) ;
#24 = AXIS2_PLACEMENT_3D ( 'NONE', #131, #17, #147 ) ;
#25 = ADVANCED_FACE ( 'NONE', ( #159 ), #83, .T. ) ;
#26 = VERTEX_POINT ( 'NONE', #116 ) ;
#27 = CC_DESIGN_PERSON_AND_ORGANIZATION_ASSIGNMENT ( #88, #1, ( #61 ) ) ;
#28 = APPLICATION_PROTOCOL_DEFINITION ( 'international standard', 'config_control_design', 1994, #98 ) ;
#29 = PRODUCT_DEFINITION_FORMATION_WITH_SPECIFIED_SOURCE ( 'ANY', '', #111, .NOT_KNOWN. ) ;
#30 = APPROVAL_ROLE ( '' ) ;
#31 = CC_DESIGN_APPROVAL ( #156, ( #92 ) ) ;
#32 = UNCERTAINTY_MEASURE_WITH_UNIT (LENGTH_MEASURE( 1.000000000000000082E-05 ), #101, 'distance_accuracy_value', 'NONE');
#33 = PERSON_AND_ORGANIZATION ( #169, #139 ) ;
#34 = APPROVAL_ROLE ( '' ) ;
#35 = CC_DESIGN_PERSON_AND_ORGANIZATION_ASSIGNMENT ( #57, #151, ( #92 ) ) ;
#36 = AXIS2_PLACEMENT_3D ( 'NONE', #42, #96, #172 ) ;
#37 = CARTESIAN_POINT ( 'NONE',  ( 0.000000000000000000, 0.000000000000000000, 2.000000000000000000 ) ) ;
#38 = CARTESIAN_POINT ( 'NONE',  ( 50.00000000000000000, 6.123233995736766085E-15, 0.000000000000000000 ) ) ;
#39 = ORIENTED_EDGE ( 'NONE', *, *, #4, .F. ) ;
#40 = CARTESIAN_POINT ( 'NONE',  ( -50.00000000000000000, 0.000000000000000000, 2.000000000000000000 ) ) ;
#41 = CIRCLE ( 'NONE', #78, 50.00000000000000000 ) ;
#42 = CARTESIAN_POINT ( 'NONE',  ( 0.000000000000000000, 0.000000000000000000, 2.000000000000000000 ) ) ;
#43 = PERSON_AND_ORGANIZATION ( #169, #139 ) ;
#44 = COORDINATED_UNIVERSAL_TIME_OFFSET ( 5, 0, .BEHIND. ) ;
#45 = PERSON_AND_ORGANIZATION_ROLE ( 'design_supplier' ) ;
#46 = DATE_TIME_ROLE ( 'classification_date' ) ;
#47 = ADVANCED_FACE ( 'NONE', ( #84 ), #130, .F. ) ;
#48 = DATE_AND_TIME ( #75, #108 ) ;
#49 = AXIS2_PLACEMENT_3D ( 'NONE', #37, #82, #128 ) ;
#50 = APPROVAL_PERSON_ORGANIZATION ( #43, #100, #34 ) ;
#51 = CC_DESIGN_DATE_AND_TIME_ASSIGNMENT ( #22, #46, ( #92 ) ) ;
#52 = CARTESIAN_POINT ( 'NONE',  ( 50.00000000000000000, 6.123233995736766085E-15, 2.000000000000000000 ) ) ;
#53 = ORIENTED_EDGE ( 'NONE', *, *, #107, .F. ) ;
#54 = DIRECTION ( 'NONE',  ( -1.000000000000000000, 0.000000000000000000, 0.000000000000000000 ) ) ;
#55 =( NAMED_UNIT ( * ) PLANE_ANGLE_UNIT ( ) SI_UNIT ( $, .RADIAN. ) );
#56 = DIRECTION ( 'NONE',  ( 0.000000000000000000, 0.000000000000000000, 1.000000000000000000 ) ) ;
#57 = PERSON_AND_ORGANIZATION ( #169, #139 ) ;
#58 = APPROVAL_STATUS ( 'not_yet_approved' ) ;
#59 = EDGE_CURVE ( 'NONE', #16, #63, #167, .T. ) ;
#60 = COORDINATED_UNIVERSAL_TIME_OFFSET ( 5, 0, .BEHIND. ) ;
#61 = PRODUCT_DEFINITION ( 'UNKNOWN', '', #29, #136 ) ;
#62 = ORIENTED_EDGE ( 'NONE', *, *, #163, .F. ) ;
#63 = VERTEX_POINT ( 'NONE', #97 ) ;
#64 = VECTOR ( 'NONE', #165, 1000.000000000000000 ) ;
#65 = ORIENTED_EDGE ( 'NONE', *, *, #4, .T. ) ;
#66 = ORIENTED_EDGE ( 'NONE', *, *, #152, .F. ) ;
#67 = DIRECTION ( 'NONE',  ( 0.000000000000000000, 0.000000000000000000, 1.000000000000000000 ) ) ;
#68 = APPROVAL_STATUS ( 'not_yet_approved' ) ;
#69 = AXIS2_PLACEMENT_3D ( 'NONE', #6, #171, #54 ) ;
#70 = PERSON_AND_ORGANIZATION_ROLE ( 'creator' ) ;
#71 = DIRECTION ( 'NONE',  ( -0.000000000000000000, -0.000000000000000000, -1.000000000000000000 ) ) ;
#72 = PERSON_AND_ORGANIZATION_ROLE ( 'design_owner' ) ;
#73 = ADVANCED_BREP_SHAPE_REPRESENTATION ( 'Web Model 20159_20159', ( #9, #164 ), #146 ) ;
#74 = CIRCLE ( 'NONE', #99, 50.00000000000000000 ) ;
#75 = CALENDAR_DATE ( 2022, 22, 3 ) ;
#76 = CC_DESIGN_PERSON_AND_ORGANIZATION_ASSIGNMENT ( #33, #72, ( #111 ) ) ;
#77 = EDGE_LOOP ( 'NONE', ( #39, #62 ) ) ;
#78 = AXIS2_PLACEMENT_3D ( 'NONE', #127, #110, #8 ) ;
#79 = EDGE_LOOP ( 'NONE', ( #66, #168, #91, #142 ) ) ;
#80 = CARTESIAN_POINT ( 'NONE',  ( 0.000000000000000000, 0.000000000000000000, 0.000000000000000000 ) ) ;
#81 =( NAMED_UNIT ( * ) SI_UNIT ( $, .STERADIAN. ) SOLID_ANGLE_UNIT ( ) );
#82 = DIRECTION ( 'NONE',  ( 0.000000000000000000, 0.000000000000000000, 1.000000000000000000 ) ) ;
#83 = CYLINDRICAL_SURFACE ( 'NONE', #94, 50.00000000000000000 ) ;
#84 = FACE_OUTER_BOUND ( 'NONE', #77, .T. ) ;
#85 = LOCAL_TIME ( 16, 9, 10.00000000000000000, #120 ) ;
#86 = CC_DESIGN_PERSON_AND_ORGANIZATION_ASSIGNMENT ( #161, #70, ( #29 ) ) ;
#87 = APPROVAL_DATE_TIME ( #13, #154 ) ;
#88 = PERSON_AND_ORGANIZATION ( #169, #139 ) ;
#89 = CARTESIAN_POINT ( 'NONE',  ( 0.000000000000000000, 0.000000000000000000, 2.000000000000000000 ) ) ;
#90 = CALENDAR_DATE ( 2022, 22, 3 ) ;
#91 = ORIENTED_EDGE ( 'NONE', *, *, #163, .T. ) ;
#92 = SECURITY_CLASSIFICATION ( '', '', #106 ) ;
#93 = CARTESIAN_POINT ( 'NONE',  ( 0.000000000000000000, 0.000000000000000000, 0.000000000000000000 ) ) ;
#94 = AXIS2_PLACEMENT_3D ( 'NONE', #89, #71, #133 ) ;
#95 = CYLINDRICAL_SURFACE ( 'NONE', #69, 50.00000000000000000 ) ;
#96 = DIRECTION ( 'NONE',  ( 0.000000000000000000, 0.000000000000000000, 1.000000000000000000 ) ) ;
#97 = CARTESIAN_POINT ( 'NONE',  ( -50.00000000000000000, 0.000000000000000000, 0.000000000000000000 ) ) ;
#98 = APPLICATION_CONTEXT ( 'configuration controlled 3d designs of mechanical parts and assemblies' ) ;
#99 = AXIS2_PLACEMENT_3D ( 'NONE', #80, #67, #144 ) ;
#100 = APPROVAL ( #58, 'UNSPECIFIED' ) ;
#101 =( LENGTH_UNIT ( ) NAMED_UNIT ( * ) SI_UNIT ( .MILLI., .METRE. ) );
#102 = CALENDAR_DATE ( 2022, 22, 3 ) ;
#103 = APPROVAL_STATUS ( 'not_yet_approved' ) ;
#104 = COORDINATED_UNIVERSAL_TIME_OFFSET ( 5, 0, .BEHIND. ) ;
#105 = DATE_AND_TIME ( #90, #153 ) ;
#106 = SECURITY_CLASSIFICATION_LEVEL ( 'unclassified' ) ;
#107 = EDGE_CURVE ( 'NONE', #26, #129, #118, .T. ) ;
#108 = LOCAL_TIME ( 16, 9, 10.00000000000000000, #44 ) ;
#109 = MECHANICAL_CONTEXT ( 'NONE', #98, 'mechanical' ) ;
#110 = DIRECTION ( 'NONE',  ( 0.000000000000000000, 0.000000000000000000, 1.000000000000000000 ) ) ;
#111 = PRODUCT ( 'Web Model 20159_20159', 'Web Model 20159_20159', '', ( #109 ) ) ;
#112 = CC_DESIGN_APPROVAL ( #154, ( #29 ) ) ;
#113 = EDGE_LOOP ( 'NONE', ( #53, #115, #18, #65 ) ) ;
#114 = CARTESIAN_POINT ( 'NONE',  ( 0.000000000000000000, 0.000000000000000000, 0.000000000000000000 ) ) ;
#115 = ORIENTED_EDGE ( 'NONE', *, *, #138, .F. ) ;
#116 = CARTESIAN_POINT ( 'NONE',  ( 50.00000000000000000, 6.123233995736766085E-15, 2.000000000000000000 ) ) ;
#117 = CC_DESIGN_DATE_AND_TIME_ASSIGNMENT ( #48, #149, ( #61 ) ) ;
#118 = LINE ( 'NONE', #52, #64 ) ;
#119 = APPLICATION_PROTOCOL_DEFINITION ( 'international standard', 'config_control_design', 1994, #160 ) ;
#120 = COORDINATED_UNIVERSAL_TIME_OFFSET ( 5, 0, .BEHIND. ) ;
#121 = COORDINATED_UNIVERSAL_TIME_OFFSET ( 5, 0, .BEHIND. ) ;
#122 = CIRCLE ( 'NONE', #36, 50.00000000000000000 ) ;
#123 = DATE_AND_TIME ( #11, #85 ) ;
#124 = APPROVAL_ROLE ( '' ) ;
#125 = ADVANCED_FACE ( 'NONE', ( #145 ), #173, .T. ) ;
#126 = EDGE_LOOP ( 'NONE', ( #158, #155 ) ) ;
#127 = CARTESIAN_POINT ( 'NONE',  ( 0.000000000000000000, 0.000000000000000000, 0.000000000000000000 ) ) ;
#128 = DIRECTION ( 'NONE',  ( 1.000000000000000000, 0.000000000000000000, -0.000000000000000000 ) ) ;
#129 = VERTEX_POINT ( 'NONE', #38 ) ;
#130 = PLANE ( 'NONE',  #3 ) ;
#131 = CARTESIAN_POINT ( 'NONE',  ( 0.000000000000000000, 0.000000000000000000, 2.000000000000000000 ) ) ;
#132 = CALENDAR_DATE ( 2022, 22, 3 ) ;
#133 = DIRECTION ( 'NONE',  ( -1.000000000000000000, 0.000000000000000000, 0.000000000000000000 ) ) ;
#134 = APPROVAL_DATE_TIME ( #123, #100 ) ;
#135 = CIRCLE ( 'NONE', #24, 50.00000000000000000 ) ;
#136 = DESIGN_CONTEXT ( 'detailed design', #160, 'design' ) ;
#137 = PERSON_AND_ORGANIZATION ( #169, #139 ) ;
#138 = EDGE_CURVE ( 'NONE', #16, #26, #135, .T. ) ;
#139 = ORGANIZATION ( 'UNSPECIFIED', 'UNSPECIFIED', '' ) ;
#140 = CC_DESIGN_SECURITY_CLASSIFICATION ( #92, ( #29 ) ) ;
#141 = PRODUCT_DEFINITION_SHAPE ( 'NONE', 'NONE',  #61 ) ;
#142 = ORIENTED_EDGE ( 'NONE', *, *, #59, .F. ) ;
#143 = DIRECTION ( 'NONE',  ( -0.000000000000000000, -0.000000000000000000, -1.000000000000000000 ) ) ;
#144 = DIRECTION ( 'NONE',  ( 1.000000000000000000, 0.000000000000000000, 0.000000000000000000 ) ) ;
#145 = FACE_OUTER_BOUND ( 'NONE', #126, .T. ) ;
#146 =( GEOMETRIC_REPRESENTATION_CONTEXT ( 3 ) GLOBAL_UNCERTAINTY_ASSIGNED_CONTEXT ( ( #32 ) ) GLOBAL_UNIT_ASSIGNED_CONTEXT ( ( #101, #55, #81 ) ) REPRESENTATION_CONTEXT ( 'NONE', 'WORKASPACE' ) );
#147 = DIRECTION ( 'NONE',  ( 1.000000000000000000, 0.000000000000000000, 0.000000000000000000 ) ) ;
#148 = LOCAL_TIME ( 16, 9, 10.00000000000000000, #104 ) ;
#149 = DATE_TIME_ROLE ( 'creation_date' ) ;
#150 = PERSON_AND_ORGANIZATION ( #169, #139 ) ;
#152 = EDGE_CURVE ( 'NONE', #26, #16, #122, .T. ) ;
#151 = PERSON_AND_ORGANIZATION_ROLE ( 'classification_officer' ) ;
#153 = LOCAL_TIME ( 16, 9, 10.00000000000000000, #121 ) ;
#154 = APPROVAL ( #68, 'UNSPECIFIED' ) ;
#155 = ORIENTED_EDGE ( 'NONE', *, *, #152, .T. ) ;
#156 = APPROVAL ( #103, 'UNSPECIFIED' ) ;
#157 = DIRECTION ( 'NONE',  ( 1.000000000000000000, 0.000000000000000000, -0.000000000000000000 ) ) ;
#158 = ORIENTED_EDGE ( 'NONE', *, *, #138, .T. ) ;
#159 = FACE_OUTER_BOUND ( 'NONE', #113, .T. ) ;
#160 = APPLICATION_CONTEXT ( 'configuration controlled 3d designs of mechanical parts and assemblies' ) ;
#161 = PERSON_AND_ORGANIZATION ( #169, #139 ) ;
#162 = CLOSED_SHELL ( 'NONE', ( #10, #25, #125, #47 ) ) ;
#163 = EDGE_CURVE ( 'NONE', #129, #63, #74, .T. ) ;
#164 = AXIS2_PLACEMENT_3D ( 'NONE', #114, #5, #170 ) ;
#165 = DIRECTION ( 'NONE',  ( -0.000000000000000000, -0.000000000000000000, -1.000000000000000000 ) ) ;
#166 = FACE_OUTER_BOUND ( 'NONE', #79, .T. ) ;
#167 = LINE ( 'NONE', #7, #23 ) ;
#168 = ORIENTED_EDGE ( 'NONE', *, *, #107, .T. ) ;
#169 = PERSON ( 'UNSPECIFIED', 'UNSPECIFIED', 'UNSPECIFIED', ('UNSPECIFIED'), ('UNSPECIFIED'), ('UNSPECIFIED') ) ;
#170 = DIRECTION ( 'NONE',  ( 1.000000000000000000, 0.000000000000000000, 0.000000000000000000 ) ) ;
#171 = DIRECTION ( 'NONE',  ( -0.000000000000000000, -0.000000000000000000, -1.000000000000000000 ) ) ;
#172 = DIRECTION ( 'NONE',  ( 1.000000000000000000, 0.000000000000000000, 0.000000000000000000 ) ) ;
#173 = PLANE ( 'NONE',  #49 ) ;
#174 = APPROVAL_PERSON_ORGANIZATION ( #150, #156, #124 ) ;
#175 = PERSON_AND_ORGANIZATION ( #169, #139 ) ;
ENDSEC;
END-ISO-10303-21;
