ISO-10303-21;
HEADER;
FILE_DESCRIPTION (( 'STEP AP203' ),
    '1' );
FILE_NAME ('Web Model 22036_22043.step',
    '2022-06-08T15:10:55',
    ( '' ),
    ( '' ),
    'SwSTEP 2.0',
    'SolidWorks 2021',
    '' );
FILE_SCHEMA (( 'CONFIG_CONTROL_DESIGN' ));
ENDSEC;

DATA;
#1 = ORIENTED_EDGE ( 'NONE', *, *, #140, .F. ) ;
#2 = CIRCLE ( 'NONE', #132, 25.00000000000000000 ) ;
#3 = CARTESIAN_POINT ( 'NONE',  ( 25.00000000000000000, 3.061616997868383043E-15, 0.000000000000000000 ) ) ;
#4 = CARTESIAN_POINT ( 'NONE',  ( 0.000000000000000000, 0.000000000000000000, 0.2000000000000000111 ) ) ;
#5 = DIRECTION ( 'NONE',  ( 0.000000000000000000, 0.000000000000000000, 1.000000000000000000 ) ) ;
#6 = APPROVAL_ROLE ( '' ) ;
#7 = DATE_TIME_ROLE ( 'creation_date' ) ;
#8 = COORDINATED_UNIVERSAL_TIME_OFFSET ( 5, 0, .BEHIND. ) ;
#9 = EDGE_LOOP ( 'NONE', ( #76, #52, #87, #95 ) ) ;
#10 = APPROVAL_ROLE ( '' ) ;
#11 = PERSON_AND_ORGANIZATION_ROLE ( 'design_supplier' ) ;
#12 = APPROVAL_PERSON_ORGANIZATION ( #145, #127, #6 ) ;
#13 = DIRECTION ( 'NONE',  ( -1.000000000000000000, 0.000000000000000000, 0.000000000000000000 ) ) ;
#14 = CARTESIAN_POINT ( 'NONE',  ( 0.000000000000000000, 0.000000000000000000, 0.2000000000000000111 ) ) ;
#15 = APPROVAL ( #122, 'UNSPECIFIED' ) ;
#16 = PERSON ( 'UNSPECIFIED', 'UNSPECIFIED', 'UNSPECIFIED', ('UNSPECIFIED'), ('UNSPECIFIED'), ('UNSPECIFIED') ) ;
#17 = DIRECTION ( 'NONE',  ( 1.000000000000000000, 0.000000000000000000, 0.000000000000000000 ) ) ;
#18 = CC_DESIGN_APPROVAL ( #40, ( #171 ) ) ;
#19 = SHAPE_DEFINITION_REPRESENTATION ( #102, #104 ) ;
#20 = COORDINATED_UNIVERSAL_TIME_OFFSET ( 5, 0, .BEHIND. ) ;
#21 = CARTESIAN_POINT ( 'NONE',  ( 0.000000000000000000, 0.000000000000000000, 0.000000000000000000 ) ) ;
#22 = APPROVAL_STATUS ( 'not_yet_approved' ) ;
#23 = LOCAL_TIME ( 11, 10, 55.00000000000000000, #170 ) ;
#24 = CALENDAR_DATE ( 2022, 8, 6 ) ;
#25 = ORIENTED_EDGE ( 'NONE', *, *, #118, .T. ) ;
#26 = AXIS2_PLACEMENT_3D ( 'NONE', #116, #166, #28 ) ;
#27 = ORIENTED_EDGE ( 'NONE', *, *, #90, .F. ) ;
#28 = DIRECTION ( 'NONE',  ( -1.000000000000000000, 0.000000000000000000, 0.000000000000000000 ) ) ;
#29 = CC_DESIGN_PERSON_AND_ORGANIZATION_ASSIGNMENT ( #135, #123, ( #171 ) ) ;
#30 = LOCAL_TIME ( 11, 10, 55.00000000000000000, #20 ) ;
#31 = FACE_OUTER_BOUND ( 'NONE', #149, .T. ) ;
#32 = AXIS2_PLACEMENT_3D ( 'NONE', #4, #83, #13 ) ;
#33 = CIRCLE ( 'NONE', #67, 25.00000000000000000 ) ;
#34 = APPLICATION_CONTEXT ( 'configuration controlled 3d designs of mechanical parts and assemblies' ) ;
#35 = ORIENTED_EDGE ( 'NONE', *, *, #112, .F. ) ;
#36 = DATE_AND_TIME ( #110, #156 ) ;
#37 = APPROVAL_DATE_TIME ( #36, #127 ) ;
#38 = PRODUCT ( 'Web Model 22036_22043', 'Web Model 22036_22043', '', ( #105 ) ) ;
#39 = DIRECTION ( 'NONE',  ( 1.000000000000000000, 0.000000000000000000, 0.000000000000000000 ) ) ;
#40 = APPROVAL ( #22, 'UNSPECIFIED' ) ;
#41 = CARTESIAN_POINT ( 'NONE',  ( 0.000000000000000000, 0.000000000000000000, 0.2000000000000000111 ) ) ;
#42 = FACE_OUTER_BOUND ( 'NONE', #9, .T. ) ;
#43 = DIRECTION ( 'NONE',  ( 1.000000000000000000, 0.000000000000000000, -0.000000000000000000 ) ) ;
#44 = AXIS2_PLACEMENT_3D ( 'NONE', #41, #99, #100 ) ;
#45 = CC_DESIGN_DATE_AND_TIME_ASSIGNMENT ( #124, #174, ( #111 ) ) ;
#46 = CALENDAR_DATE ( 2022, 8, 6 ) ;
#47 = DATE_AND_TIME ( #172, #150 ) ;
#48 = ORIENTED_EDGE ( 'NONE', *, *, #58, .F. ) ;
#49 = AXIS2_PLACEMENT_3D ( 'NONE', #98, #103, #155 ) ;
#50 = CC_DESIGN_APPROVAL ( #15, ( #111 ) ) ;
#51 = PERSON_AND_ORGANIZATION_ROLE ( 'classification_officer' ) ;
#52 = ORIENTED_EDGE ( 'NONE', *, *, #118, .F. ) ;
#53 = ADVANCED_FACE ( 'NONE', ( #42 ), #86, .T. ) ;
#54 = APPROVAL_PERSON_ORGANIZATION ( #168, #15, #106 ) ;
#55 = LINE ( 'NONE', #113, #89 ) ;
#56 = DIRECTION ( 'NONE',  ( 0.000000000000000000, 0.000000000000000000, 1.000000000000000000 ) ) ;
#57 = EDGE_LOOP ( 'NONE', ( #25, #146 ) ) ;
#58 = EDGE_CURVE ( 'NONE', #93, #78, #33, .T. ) ;
#59 = AXIS2_PLACEMENT_3D ( 'NONE', #130, #142, #43 ) ;
#60 = PRODUCT_DEFINITION ( 'UNKNOWN', '', #171, #131 ) ;
#61 = PERSON_AND_ORGANIZATION ( #16, #73 ) ;
#62 = APPROVAL_STATUS ( 'not_yet_approved' ) ;
#63 = PERSON_AND_ORGANIZATION ( #16, #73 ) ;
#64 = VERTEX_POINT ( 'NONE', #68 ) ;
#65 = APPLICATION_PROTOCOL_DEFINITION ( 'international standard', 'config_control_design', 1994, #34 ) ;
#66 = CALENDAR_DATE ( 2022, 8, 6 ) ;
#67 = AXIS2_PLACEMENT_3D ( 'NONE', #14, #141, #17 ) ;
#68 = CARTESIAN_POINT ( 'NONE',  ( -25.00000000000000000, 0.000000000000000000, 0.000000000000000000 ) ) ;
#69 = DIRECTION ( 'NONE',  ( -0.000000000000000000, -0.000000000000000000, -1.000000000000000000 ) ) ;
#70 = CARTESIAN_POINT ( 'NONE',  ( 0.000000000000000000, 0.000000000000000000, 0.000000000000000000 ) ) ;
#71 =( NAMED_UNIT ( * ) SI_UNIT ( $, .STERADIAN. ) SOLID_ANGLE_UNIT ( ) );
#72 = MANIFOLD_SOLID_BREP ( 'Boss-Extrude1', #101 ) ;
#73 = ORGANIZATION ( 'UNSPECIFIED', 'UNSPECIFIED', '' ) ;
#74 = APPROVAL_DATE_TIME ( #144, #15 ) ;
#75 = ADVANCED_FACE ( 'NONE', ( #164 ), #126, .F. ) ;
#76 = ORIENTED_EDGE ( 'NONE', *, *, #125, .F. ) ;
#77 = APPROVAL_DATE_TIME ( #138, #40 ) ;
#78 = VERTEX_POINT ( 'NONE', #97 ) ;
#79 = APPLICATION_CONTEXT ( 'configuration controlled 3d designs of mechanical parts and assemblies' ) ;
#80 = PERSON_AND_ORGANIZATION ( #16, #73 ) ;
#81 = PERSON_AND_ORGANIZATION ( #16, #73 ) ;
#82 = CC_DESIGN_APPROVAL ( #127, ( #60 ) ) ;
#83 = DIRECTION ( 'NONE',  ( -0.000000000000000000, -0.000000000000000000, -1.000000000000000000 ) ) ;
#84 = CARTESIAN_POINT ( 'NONE',  ( 0.000000000000000000, 0.000000000000000000, 0.000000000000000000 ) ) ;
#85 =( LENGTH_UNIT ( ) NAMED_UNIT ( * ) SI_UNIT ( .MILLI., .METRE. ) );
#86 = CYLINDRICAL_SURFACE ( 'NONE', #26, 25.00000000000000000 ) ;
#87 = ORIENTED_EDGE ( 'NONE', *, *, #140, .T. ) ;
#88 = CC_DESIGN_PERSON_AND_ORGANIZATION_ASSIGNMENT ( #80, #137, ( #38 ) ) ;
#89 = VECTOR ( 'NONE', #128, 1000.000000000000000 ) ;
#90 = EDGE_CURVE ( 'NONE', #64, #159, #2, .T. ) ;
#91 = AXIS2_PLACEMENT_3D ( 'NONE', #21, #158, #120 ) ;
#92 = PERSON_AND_ORGANIZATION ( #16, #73 ) ;
#93 = VERTEX_POINT ( 'NONE', #129 ) ;
#94 = PERSON_AND_ORGANIZATION_ROLE ( 'creator' ) ;
#95 = ORIENTED_EDGE ( 'NONE', *, *, #90, .T. ) ;
#96 = APPROVAL_PERSON_ORGANIZATION ( #92, #40, #10 ) ;
#97 = CARTESIAN_POINT ( 'NONE',  ( -25.00000000000000000, 0.000000000000000000, 0.2000000000000000111 ) ) ;
#98 = CARTESIAN_POINT ( 'NONE',  ( 0.000000000000000000, 0.000000000000000000, 0.2000000000000000111 ) ) ;
#99 = DIRECTION ( 'NONE',  ( 0.000000000000000000, 0.000000000000000000, 1.000000000000000000 ) ) ;
#100 = DIRECTION ( 'NONE',  ( 1.000000000000000000, 0.000000000000000000, -0.000000000000000000 ) ) ;
#101 = CLOSED_SHELL ( 'NONE', ( #148, #53, #169, #75 ) ) ;
#102 = PRODUCT_DEFINITION_SHAPE ( 'NONE', 'NONE',  #60 ) ;
#103 = DIRECTION ( 'NONE',  ( 0.000000000000000000, 0.000000000000000000, 1.000000000000000000 ) ) ;
#104 = ADVANCED_BREP_SHAPE_REPRESENTATION ( 'Web Model 22036_22043', ( #72, #91 ), #136 ) ;
#105 = MECHANICAL_CONTEXT ( 'NONE', #34, 'mechanical' ) ;
#106 = APPROVAL_ROLE ( '' ) ;
#107 = ORIENTED_EDGE ( 'NONE', *, *, #125, .T. ) ;
#108 = COORDINATED_UNIVERSAL_TIME_OFFSET ( 5, 0, .BEHIND. ) ;
#109 = CC_DESIGN_PERSON_AND_ORGANIZATION_ASSIGNMENT ( #63, #11, ( #171 ) ) ;
#110 = CALENDAR_DATE ( 2022, 8, 6 ) ;
#111 = SECURITY_CLASSIFICATION ( '', '', #119 ) ;
#112 = EDGE_CURVE ( 'NONE', #159, #64, #143, .T. ) ;
#113 = CARTESIAN_POINT ( 'NONE',  ( -25.00000000000000000, 0.000000000000000000, 0.2000000000000000111 ) ) ;
#114 = FACE_OUTER_BOUND ( 'NONE', #57, .T. ) ;
#115 = CARTESIAN_POINT ( 'NONE',  ( 25.00000000000000000, 3.061616997868383043E-15, 0.2000000000000000111 ) ) ;
#116 = CARTESIAN_POINT ( 'NONE',  ( 0.000000000000000000, 0.000000000000000000, 0.2000000000000000111 ) ) ;
#117 = CC_DESIGN_SECURITY_CLASSIFICATION ( #111, ( #171 ) ) ;
#118 = EDGE_CURVE ( 'NONE', #78, #93, #121, .T. ) ;
#119 = SECURITY_CLASSIFICATION_LEVEL ( 'unclassified' ) ;
#120 = DIRECTION ( 'NONE',  ( 1.000000000000000000, 0.000000000000000000, 0.000000000000000000 ) ) ;
#121 = CIRCLE ( 'NONE', #49, 25.00000000000000000 ) ;
#122 = APPROVAL_STATUS ( 'not_yet_approved' ) ;
#123 = PERSON_AND_ORGANIZATION_ROLE ( 'creator' ) ;
#124 = DATE_AND_TIME ( #66, #30 ) ;
#125 = EDGE_CURVE ( 'NONE', #93, #159, #152, .T. ) ;
#126 = PLANE ( 'NONE',  #59 ) ;
#127 = APPROVAL ( #62, 'UNSPECIFIED' ) ;
#128 = DIRECTION ( 'NONE',  ( -0.000000000000000000, -0.000000000000000000, -1.000000000000000000 ) ) ;
#129 = CARTESIAN_POINT ( 'NONE',  ( 25.00000000000000000, 3.061616997868383043E-15, 0.2000000000000000111 ) ) ;
#130 = CARTESIAN_POINT ( 'NONE',  ( 0.000000000000000000, 0.000000000000000000, 0.000000000000000000 ) ) ;
#131 = DESIGN_CONTEXT ( 'detailed design', #79, 'design' ) ;
#132 = AXIS2_PLACEMENT_3D ( 'NONE', #84, #5, #39 ) ;
#133 = AXIS2_PLACEMENT_3D ( 'NONE', #70, #56, #165 ) ;
#134 = ORIENTED_EDGE ( 'NONE', *, *, #112, .T. ) ;
#135 = PERSON_AND_ORGANIZATION ( #16, #73 ) ;
#136 =( GEOMETRIC_REPRESENTATION_CONTEXT ( 3 ) GLOBAL_UNCERTAINTY_ASSIGNED_CONTEXT ( ( #154 ) ) GLOBAL_UNIT_ASSIGNED_CONTEXT ( ( #85, #153, #71 ) ) REPRESENTATION_CONTEXT ( 'NONE', 'WORKASPACE' ) );
#137 = PERSON_AND_ORGANIZATION_ROLE ( 'design_owner' ) ;
#138 = DATE_AND_TIME ( #24, #23 ) ;
#139 = PLANE ( 'NONE',  #44 ) ;
#140 = EDGE_CURVE ( 'NONE', #78, #64, #55, .T. ) ;
#141 = DIRECTION ( 'NONE',  ( 0.000000000000000000, 0.000000000000000000, 1.000000000000000000 ) ) ;
#142 = DIRECTION ( 'NONE',  ( 0.000000000000000000, 0.000000000000000000, 1.000000000000000000 ) ) ;
#143 = CIRCLE ( 'NONE', #133, 25.00000000000000000 ) ;
#144 = DATE_AND_TIME ( #46, #175 ) ;
#145 = PERSON_AND_ORGANIZATION ( #16, #73 ) ;
#146 = ORIENTED_EDGE ( 'NONE', *, *, #58, .T. ) ;
#147 = COORDINATED_UNIVERSAL_TIME_OFFSET ( 5, 0, .BEHIND. ) ;
#148 = ADVANCED_FACE ( 'NONE', ( #31 ), #151, .T. ) ;
#149 = EDGE_LOOP ( 'NONE', ( #48, #107, #134, #1 ) ) ;
#150 = LOCAL_TIME ( 11, 10, 55.00000000000000000, #8 ) ;
#151 = CYLINDRICAL_SURFACE ( 'NONE', #32, 25.00000000000000000 ) ;
#152 = LINE ( 'NONE', #115, #163 ) ;
#153 =( NAMED_UNIT ( * ) PLANE_ANGLE_UNIT ( ) SI_UNIT ( $, .RADIAN. ) );
#154 = UNCERTAINTY_MEASURE_WITH_UNIT (LENGTH_MEASURE( 1.000000000000000082E-05 ), #85, 'distance_accuracy_value', 'NONE');
#155 = DIRECTION ( 'NONE',  ( 1.000000000000000000, 0.000000000000000000, 0.000000000000000000 ) ) ;
#156 = LOCAL_TIME ( 11, 10, 55.00000000000000000, #147 ) ;
#157 = CC_DESIGN_DATE_AND_TIME_ASSIGNMENT ( #47, #7, ( #60 ) ) ;
#158 = DIRECTION ( 'NONE',  ( 0.000000000000000000, 0.000000000000000000, 1.000000000000000000 ) ) ;
#159 = VERTEX_POINT ( 'NONE', #3 ) ;
#160 = APPLICATION_PROTOCOL_DEFINITION ( 'international standard', 'config_control_design', 1994, #79 ) ;
#161 = PRODUCT_RELATED_PRODUCT_CATEGORY ( 'detail', '', ( #38 ) ) ;
#162 = EDGE_LOOP ( 'NONE', ( #27, #35 ) ) ;
#163 = VECTOR ( 'NONE', #69, 1000.000000000000000 ) ;
#164 = FACE_OUTER_BOUND ( 'NONE', #162, .T. ) ;
#165 = DIRECTION ( 'NONE',  ( 1.000000000000000000, 0.000000000000000000, 0.000000000000000000 ) ) ;
#166 = DIRECTION ( 'NONE',  ( -0.000000000000000000, -0.000000000000000000, -1.000000000000000000 ) ) ;
#167 = CC_DESIGN_PERSON_AND_ORGANIZATION_ASSIGNMENT ( #81, #94, ( #60 ) ) ;
#168 = PERSON_AND_ORGANIZATION ( #16, #73 ) ;
#169 = ADVANCED_FACE ( 'NONE', ( #114 ), #139, .T. ) ;
#170 = COORDINATED_UNIVERSAL_TIME_OFFSET ( 5, 0, .BEHIND. ) ;
#171 = PRODUCT_DEFINITION_FORMATION_WITH_SPECIFIED_SOURCE ( 'ANY', '', #38, .NOT_KNOWN. ) ;
#172 = CALENDAR_DATE ( 2022, 8, 6 ) ;
#173 = CC_DESIGN_PERSON_AND_ORGANIZATION_ASSIGNMENT ( #61, #51, ( #111 ) ) ;
#174 = DATE_TIME_ROLE ( 'classification_date' ) ;
#175 = LOCAL_TIME ( 11, 10, 55.00000000000000000, #108 ) ;
ENDSEC;
END-ISO-10303-21;
