ISO-10303-21;
HEADER;
FILE_DESCRIPTION (( 'STEP AP203' ),
    '1' );
FILE_NAME ('Web Model 68736_64377.step',
    '2017-03-06T19:02:21',
    ( '' ),
    ( '' ),
    'SwSTEP 2.0',
    'SolidWorks 2016',
    '' );
FILE_SCHEMA (( 'CONFIG_CONTROL_DESIGN' ));
ENDSEC;

DATA;
#1 = CARTESIAN_POINT ( 'NONE',  ( 0.0000000000000000000, 0.0000000000000000000, 0.0000000000000000000 ) ) ;
#2 = VERTEX_POINT ( 'NONE', #91 ) ;
#3 = CARTESIAN_POINT ( 'NONE',  ( 0.0000000000000000000, 0.0000000000000000000, 0.0000000000000000000 ) ) ;
#4 = DIRECTION ( 'NONE',  ( 0.0000000000000000000, 0.0000000000000000000, 1.000000000000000000 ) ) ;
#5 = DIRECTION ( 'NONE',  ( -1.000000000000000000, -0.0000000000000000000, -0.0000000000000000000 ) ) ;
#6 = CALENDAR_DATE ( 2017, 6, 3 ) ;
#7 = CARTESIAN_POINT ( 'NONE',  ( 2.000000000000000000, 1.224646799147353300E-015, -10.00000000000000000 ) ) ;
#8 = ADVANCED_FACE ( 'NONE', ( #55 ), #132, .T. ) ;
#9 = PRODUCT_DEFINITION_SHAPE ( 'NONE', 'NONE',  #126 ) ;
#10 = COORDINATED_UNIVERSAL_TIME_OFFSET ( 5, 0, .BEHIND. ) ;
#11 = ORIENTED_EDGE ( 'NONE', *, *, #47, .F. ) ;
#12 = DIRECTION ( 'NONE',  ( 1.000000000000000000, 0.0000000000000000000, 0.0000000000000000000 ) ) ;
#13 = APPROVAL ( #15, 'UNSPECIFIED' ) ;
#14 = LOCAL_TIME ( 14, 2, 21.00000000000000000, #112 ) ;
#15 = APPROVAL_STATUS ( 'not_yet_approved' ) ;
#16 = DIRECTION ( 'NONE',  ( 1.000000000000000000, 0.0000000000000000000, 0.0000000000000000000 ) ) ;
#17 = ORIENTED_EDGE ( 'NONE', *, *, #25, .T. ) ;
#18 = ORIENTED_EDGE ( 'NONE', *, *, #25, .F. ) ;
#19 = VERTEX_POINT ( 'NONE', #141 ) ;
#20 = EDGE_CURVE ( 'NONE', #155, #2, #43, .T. ) ;
#21 = ORIENTED_EDGE ( 'NONE', *, *, #173, .T. ) ;
#22 = AXIS2_PLACEMENT_3D ( 'NONE', #135, #32, #107 ) ;
#23 = EDGE_LOOP ( 'NONE', ( #66, #21 ) ) ;
#24 = ADVANCED_BREP_SHAPE_REPRESENTATION ( 'Web Model 68736_64377', ( #138, #67 ), #149 ) ;
#25 = EDGE_CURVE ( 'NONE', #19, #104, #45, .T. ) ;
#26 = CALENDAR_DATE ( 2017, 6, 3 ) ;
#27 = ADVANCED_FACE ( 'NONE', ( #172 ), #125, .T. ) ;
#28 = ORIENTED_EDGE ( 'NONE', *, *, #47, .T. ) ;
#29 = ORIENTED_EDGE ( 'NONE', *, *, #20, .T. ) ;
#30 = ORIENTED_EDGE ( 'NONE', *, *, #150, .T. ) ;
#31 = ORIENTED_EDGE ( 'NONE', *, *, #20, .F. ) ;
#32 = DIRECTION ( 'NONE',  ( 1.000000000000000000, 0.0000000000000000000, 0.0000000000000000000 ) ) ;
#33 = PERSON_AND_ORGANIZATION_ROLE ( 'creator' ) ;
#34 = MECHANICAL_CONTEXT ( 'NONE', #44, 'mechanical' ) ;
#35 = CIRCLE ( 'NONE', #157, 10.00000000000000000 ) ;
#36 = CARTESIAN_POINT ( 'NONE',  ( 2.000000000000000000, 0.0000000000000000000, 0.0000000000000000000 ) ) ;
#37 = APPROVAL_ROLE ( '' ) ;
#38 = CARTESIAN_POINT ( 'NONE',  ( 2.000000000000000000, 0.0000000000000000000, 10.00000000000000000 ) ) ;
#39 = PERSON ( 'UNSPECIFIED', 'UNSPECIFIED', 'UNSPECIFIED', ('UNSPECIFIED'), ('UNSPECIFIED'), ('UNSPECIFIED') ) ;
#40 = VECTOR ( 'NONE', #5, 1000.000000000000000 ) ;
#41 = EDGE_CURVE ( 'NONE', #155, #19, #35, .T. ) ;
#42 = AXIS2_PLACEMENT_3D ( 'NONE', #36, #74, #59 ) ;
#43 = LINE ( 'NONE', #38, #54 ) ;
#44 = APPLICATION_CONTEXT ( 'configuration controlled 3d designs of mechanical parts and assemblies' ) ;
#45 = LINE ( 'NONE', #7, #40 ) ;
#46 =( NAMED_UNIT ( * ) SI_UNIT ( $, .STERADIAN. ) SOLID_ANGLE_UNIT ( ) );
#47 = EDGE_CURVE ( 'NONE', #2, #104, #71, .T. ) ;
#48 = APPROVAL_DATE_TIME ( #61, #117 ) ;
#49 = DIRECTION ( 'NONE',  ( 0.0000000000000000000, 0.0000000000000000000, -1.000000000000000000 ) ) ;
#50 = PRODUCT_DEFINITION_FORMATION_WITH_SPECIFIED_SOURCE ( 'ANY', '', #52, .NOT_KNOWN. ) ;
#51 = DATE_AND_TIME ( #119, #113 ) ;
#52 = PRODUCT ( 'Web Model 68736_64377', 'Web Model 68736_64377', '', ( #34 ) ) ;
#53 = AXIS2_PLACEMENT_3D ( 'NONE', #73, #161, #77 ) ;
#54 = VECTOR ( 'NONE', #118, 1000.000000000000000 ) ;
#55 = FACE_OUTER_BOUND ( 'NONE', #166, .T. ) ;
#56 = APPLICATION_PROTOCOL_DEFINITION ( 'international standard', 'config_control_design', 1994, #63 ) ;
#57 = APPROVAL ( #88, 'UNSPECIFIED' ) ;
#58 = DIRECTION ( 'NONE',  ( 1.000000000000000000, 0.0000000000000000000, 0.0000000000000000000 ) ) ;
#59 = DIRECTION ( 'NONE',  ( 0.0000000000000000000, 0.0000000000000000000, 1.000000000000000000 ) ) ;
#60 = PRODUCT_RELATED_PRODUCT_CATEGORY ( 'detail', '', ( #52 ) ) ;
#61 = DATE_AND_TIME ( #97, #14 ) ;
#62 = DIRECTION ( 'NONE',  ( 0.0000000000000000000, 0.0000000000000000000, -1.000000000000000000 ) ) ;
#63 = APPLICATION_CONTEXT ( 'configuration controlled 3d designs of mechanical parts and assemblies' ) ;
#64 = FACE_OUTER_BOUND ( 'NONE', #139, .T. ) ;
#65 = DIRECTION ( 'NONE',  ( 1.000000000000000000, 0.0000000000000000000, 0.0000000000000000000 ) ) ;
#66 = ORIENTED_EDGE ( 'NONE', *, *, #41, .T. ) ;
#67 = AXIS2_PLACEMENT_3D ( 'NONE', #100, #4, #12 ) ;
#68 = CIRCLE ( 'NONE', #171, 10.00000000000000000 ) ;
#69 = CC_DESIGN_APPROVAL ( #57, ( #50 ) ) ;
#70 = PERSON_AND_ORGANIZATION_ROLE ( 'design_supplier' ) ;
#71 = CIRCLE ( 'NONE', #133, 10.00000000000000000 ) ;
#72 = PERSON_AND_ORGANIZATION_ROLE ( 'classification_officer' ) ;
#73 = CARTESIAN_POINT ( 'NONE',  ( 2.000000000000000000, 0.0000000000000000000, 0.0000000000000000000 ) ) ;
#74 = DIRECTION ( 'NONE',  ( -1.000000000000000000, -0.0000000000000000000, -0.0000000000000000000 ) ) ;
#75 = AXIS2_PLACEMENT_3D ( 'NONE', #1, #82, #143 ) ;
#76 = CC_DESIGN_DATE_AND_TIME_ASSIGNMENT ( #120, #145, ( #126 ) ) ;
#77 = DIRECTION ( 'NONE',  ( 0.0000000000000000000, 0.0000000000000000000, -1.000000000000000000 ) ) ;
#78 = PERSON_AND_ORGANIZATION ( #39, #163 ) ;
#79 = PERSON_AND_ORGANIZATION ( #39, #163 ) ;
#80 = FACE_OUTER_BOUND ( 'NONE', #95, .T. ) ;
#81 = APPLICATION_PROTOCOL_DEFINITION ( 'international standard', 'config_control_design', 1994, #44 ) ;
#82 = DIRECTION ( 'NONE',  ( 1.000000000000000000, 0.0000000000000000000, 0.0000000000000000000 ) ) ;
#83 = DATE_TIME_ROLE ( 'classification_date' ) ;
#84 = SHAPE_DEFINITION_REPRESENTATION ( #9, #24 ) ;
#85 =( NAMED_UNIT ( * ) PLANE_ANGLE_UNIT ( ) SI_UNIT ( $, .RADIAN. ) );
#86 = CIRCLE ( 'NONE', #22, 10.00000000000000000 ) ;
#87 = CARTESIAN_POINT ( 'NONE',  ( 2.000000000000000000, 0.0000000000000000000, 0.0000000000000000000 ) ) ;
#88 = APPROVAL_STATUS ( 'not_yet_approved' ) ;
#89 = CYLINDRICAL_SURFACE ( 'NONE', #42, 10.00000000000000000 ) ;
#90 = PLANE ( 'NONE',  #75 ) ;
#91 = CARTESIAN_POINT ( 'NONE',  ( 0.0000000000000000000, 0.0000000000000000000, 10.00000000000000000 ) ) ;
#92 = PERSON_AND_ORGANIZATION ( #39, #163 ) ;
#93 = CLOSED_SHELL ( 'NONE', ( #8, #167, #27, #160 ) ) ;
#94 = AXIS2_PLACEMENT_3D ( 'NONE', #130, #121, #106 ) ;
#95 = EDGE_LOOP ( 'NONE', ( #18, #169, #29, #28 ) ) ;
#96 = DESIGN_CONTEXT ( 'detailed design', #63, 'design' ) ;
#97 = CALENDAR_DATE ( 2017, 6, 3 ) ;
#98 = ORIENTED_EDGE ( 'NONE', *, *, #150, .F. ) ;
#99 = DATE_AND_TIME ( #6, #162 ) ;
#100 = CARTESIAN_POINT ( 'NONE',  ( 0.0000000000000000000, 0.0000000000000000000, 0.0000000000000000000 ) ) ;
#101 = CC_DESIGN_PERSON_AND_ORGANIZATION_ASSIGNMENT ( #92, #153, ( #126 ) ) ;
#102 = APPROVAL_ROLE ( '' ) ;
#103 = UNCERTAINTY_MEASURE_WITH_UNIT (LENGTH_MEASURE( 1.000000000000000100E-005 ), #116, 'distance_accuracy_value', 'NONE');
#104 = VERTEX_POINT ( 'NONE', #109 ) ;
#105 = CC_DESIGN_SECURITY_CLASSIFICATION ( #124, ( #50 ) ) ;
#106 = DIRECTION ( 'NONE',  ( 0.0000000000000000000, 0.0000000000000000000, 1.000000000000000000 ) ) ;
#107 = DIRECTION ( 'NONE',  ( 0.0000000000000000000, 0.0000000000000000000, -1.000000000000000000 ) ) ;
#108 = CC_DESIGN_APPROVAL ( #117, ( #124 ) ) ;
#109 = CARTESIAN_POINT ( 'NONE',  ( 0.0000000000000000000, 1.224646799147353300E-015, -10.00000000000000000 ) ) ;
#110 = DATE_AND_TIME ( #148, #136 ) ;
#111 = CC_DESIGN_PERSON_AND_ORGANIZATION_ASSIGNMENT ( #152, #33, ( #50 ) ) ;
#112 = COORDINATED_UNIVERSAL_TIME_OFFSET ( 5, 0, .BEHIND. ) ;
#113 = LOCAL_TIME ( 14, 2, 21.00000000000000000, #142 ) ;
#114 = DIRECTION ( 'NONE',  ( 0.0000000000000000000, 0.0000000000000000000, -1.000000000000000000 ) ) ;
#115 = APPROVAL_STATUS ( 'not_yet_approved' ) ;
#116 =( LENGTH_UNIT ( ) NAMED_UNIT ( * ) SI_UNIT ( .MILLI., .METRE. ) );
#117 = APPROVAL ( #115, 'UNSPECIFIED' ) ;
#118 = DIRECTION ( 'NONE',  ( -1.000000000000000000, -0.0000000000000000000, -0.0000000000000000000 ) ) ;
#119 = CALENDAR_DATE ( 2017, 6, 3 ) ;
#120 = DATE_AND_TIME ( #26, #144 ) ;
#121 = DIRECTION ( 'NONE',  ( -1.000000000000000000, -0.0000000000000000000, -0.0000000000000000000 ) ) ;
#122 = APPROVAL_PERSON_ORGANIZATION ( #151, #57, #102 ) ;
#123 = APPROVAL_DATE_TIME ( #110, #57 ) ;
#124 = SECURITY_CLASSIFICATION ( '', '', #134 ) ;
#125 = PLANE ( 'NONE',  #53 ) ;
#126 = PRODUCT_DEFINITION ( 'UNKNOWN', '', #50, #96 ) ;
#127 = APPROVAL_PERSON_ORGANIZATION ( #168, #13, #147 ) ;
#128 = CC_DESIGN_PERSON_AND_ORGANIZATION_ASSIGNMENT ( #79, #70, ( #50 ) ) ;
#129 = COORDINATED_UNIVERSAL_TIME_OFFSET ( 5, 0, .BEHIND. ) ;
#130 = CARTESIAN_POINT ( 'NONE',  ( 2.000000000000000000, 0.0000000000000000000, 0.0000000000000000000 ) ) ;
#131 = CC_DESIGN_DATE_AND_TIME_ASSIGNMENT ( #99, #83, ( #124 ) ) ;
#132 = CYLINDRICAL_SURFACE ( 'NONE', #94, 10.00000000000000000 ) ;
#133 = AXIS2_PLACEMENT_3D ( 'NONE', #154, #65, #49 ) ;
#134 = SECURITY_CLASSIFICATION_LEVEL ( 'unclassified' ) ;
#135 = CARTESIAN_POINT ( 'NONE',  ( 2.000000000000000000, 0.0000000000000000000, 0.0000000000000000000 ) ) ;
#136 = LOCAL_TIME ( 14, 2, 21.00000000000000000, #175 ) ;
#137 = PERSON_AND_ORGANIZATION_ROLE ( 'design_owner' ) ;
#138 = MANIFOLD_SOLID_BREP ( 'Extrude1', #93 ) ;
#139 = EDGE_LOOP ( 'NONE', ( #11, #98 ) ) ;
#140 = APPROVAL_PERSON_ORGANIZATION ( #165, #117, #37 ) ;
#141 = CARTESIAN_POINT ( 'NONE',  ( 2.000000000000000000, 1.224646799147353300E-015, -10.00000000000000000 ) ) ;
#142 = COORDINATED_UNIVERSAL_TIME_OFFSET ( 5, 0, .BEHIND. ) ;
#143 = DIRECTION ( 'NONE',  ( 0.0000000000000000000, 0.0000000000000000000, -1.000000000000000000 ) ) ;
#144 = LOCAL_TIME ( 14, 2, 21.00000000000000000, #129 ) ;
#145 = DATE_TIME_ROLE ( 'creation_date' ) ;
#146 = CARTESIAN_POINT ( 'NONE',  ( 2.000000000000000000, 0.0000000000000000000, 10.00000000000000000 ) ) ;
#147 = APPROVAL_ROLE ( '' ) ;
#148 = CALENDAR_DATE ( 2017, 6, 3 ) ;
#149 =( GEOMETRIC_REPRESENTATION_CONTEXT ( 3 ) GLOBAL_UNCERTAINTY_ASSIGNED_CONTEXT ( ( #103 ) ) GLOBAL_UNIT_ASSIGNED_CONTEXT ( ( #116, #85, #46 ) ) REPRESENTATION_CONTEXT ( 'NONE', 'WORKASPACE' ) );
#150 = EDGE_CURVE ( 'NONE', #104, #2, #68, .T. ) ;
#151 = PERSON_AND_ORGANIZATION ( #39, #163 ) ;
#152 = PERSON_AND_ORGANIZATION ( #39, #163 ) ;
#153 = PERSON_AND_ORGANIZATION_ROLE ( 'creator' ) ;
#154 = CARTESIAN_POINT ( 'NONE',  ( 0.0000000000000000000, 0.0000000000000000000, 0.0000000000000000000 ) ) ;
#155 = VERTEX_POINT ( 'NONE', #146 ) ;
#156 = ORIENTED_EDGE ( 'NONE', *, *, #173, .F. ) ;
#157 = AXIS2_PLACEMENT_3D ( 'NONE', #87, #58, #62 ) ;
#158 = PERSON_AND_ORGANIZATION ( #39, #163 ) ;
#159 = CC_DESIGN_PERSON_AND_ORGANIZATION_ASSIGNMENT ( #158, #137, ( #52 ) ) ;
#160 = ADVANCED_FACE ( 'NONE', ( #64 ), #90, .F. ) ;
#161 = DIRECTION ( 'NONE',  ( 1.000000000000000000, 0.0000000000000000000, 0.0000000000000000000 ) ) ;
#162 = LOCAL_TIME ( 14, 2, 21.00000000000000000, #10 ) ;
#163 = ORGANIZATION ( 'UNSPECIFIED', 'UNSPECIFIED', '' ) ;
#164 = CC_DESIGN_APPROVAL ( #13, ( #126 ) ) ;
#165 = PERSON_AND_ORGANIZATION ( #39, #163 ) ;
#166 = EDGE_LOOP ( 'NONE', ( #156, #17, #30, #31 ) ) ;
#167 = ADVANCED_FACE ( 'NONE', ( #80 ), #89, .T. ) ;
#168 = PERSON_AND_ORGANIZATION ( #39, #163 ) ;
#169 = ORIENTED_EDGE ( 'NONE', *, *, #41, .F. ) ;
#170 = CC_DESIGN_PERSON_AND_ORGANIZATION_ASSIGNMENT ( #78, #72, ( #124 ) ) ;
#171 = AXIS2_PLACEMENT_3D ( 'NONE', #3, #16, #114 ) ;
#172 = FACE_OUTER_BOUND ( 'NONE', #23, .T. ) ;
#173 = EDGE_CURVE ( 'NONE', #19, #155, #86, .T. ) ;
#174 = APPROVAL_DATE_TIME ( #51, #13 ) ;
#175 = COORDINATED_UNIVERSAL_TIME_OFFSET ( 5, 0, .BEHIND. ) ;
ENDSEC;
END-ISO-10303-21;
