ISO-10303-21;
HEADER;
FILE_DESCRIPTION (( 'STEP AP203' ),
    '1' );
FILE_NAME ('Web Model 47047_48572.step',
    '2017-06-06T16:59:41',
    ( '' ),
    ( '' ),
    'SwSTEP 2.0',
    'SolidWorks 2016',
    '' );
FILE_SCHEMA (( 'CONFIG_CONTROL_DESIGN' ));
ENDSEC;

DATA;
#1 = DIRECTION ( 'NONE',  ( 0.7071067811865474600, -0.7071067811865474600, 0.0000000000000000000 ) ) ;
#2 = ORIENTED_EDGE ( 'NONE', *, *, #110, .T. ) ;
#3 = VECTOR ( 'NONE', #28, 1000.000000000000000 ) ;
#4 = LOCAL_TIME ( 12, 59, 41.00000000000000000, #81 ) ;
#5 = PERSON_AND_ORGANIZATION_ROLE ( 'creator' ) ;
#6 = DIRECTION ( 'NONE',  ( 0.0000000000000000000, 1.000000000000000000, -0.0000000000000000000 ) ) ;
#7 = AXIS2_PLACEMENT_3D ( 'NONE', #56, #248, #210 ) ;
#8 = PERSON_AND_ORGANIZATION_ROLE ( 'classification_officer' ) ;
#9 = DIRECTION ( 'NONE',  ( -0.7071067811865474600, 0.7071067811865474600, 0.0000000000000000000 ) ) ;
#10 = ORIENTED_EDGE ( 'NONE', *, *, #143, .T. ) ;
#11 = EDGE_LOOP ( 'NONE', ( #200, #205, #48 ) ) ;
#12 = DIRECTION ( 'NONE',  ( 1.000000000000000000, 0.0000000000000000000, 0.0000000000000000000 ) ) ;
#13 = ADVANCED_FACE ( 'NONE', ( #31 ), #195, .F. ) ;
#14 = VECTOR ( 'NONE', #6, 1000.000000000000000 ) ;
#15 = COORDINATED_UNIVERSAL_TIME_OFFSET ( 5, 0, .BEHIND. ) ;
#16 = DIRECTION ( 'NONE',  ( 0.0000000000000000000, 0.0000000000000000000, 1.000000000000000000 ) ) ;
#17 = CARTESIAN_POINT ( 'NONE',  ( 0.0000000000000000000, -7.499999999999999100, 7.500000000000000000 ) ) ;
#18 = APPROVAL ( #115, 'UNSPECIFIED' ) ;
#19 = DIRECTION ( 'NONE',  ( 0.7071067811865475700, 0.7071067811865475700, -0.0000000000000000000 ) ) ;
#20 = PERSON ( 'UNSPECIFIED', 'UNSPECIFIED', 'UNSPECIFIED', ('UNSPECIFIED'), ('UNSPECIFIED'), ('UNSPECIFIED') ) ;
#21 = DATE_AND_TIME ( #100, #138 ) ;
#22 = EDGE_CURVE ( 'NONE', #148, #278, #186, .T. ) ;
#23 = ORIENTED_EDGE ( 'NONE', *, *, #93, .T. ) ;
#24 = CARTESIAN_POINT ( 'NONE',  ( 7.499999999999998200, -7.500000000000000000, 7.500000000000000000 ) ) ;
#25 = ORIENTED_EDGE ( 'NONE', *, *, #110, .F. ) ;
#26 = LINE ( 'NONE', #238, #265 ) ;
#27 = LOCAL_TIME ( 12, 59, 41.00000000000000000, #15 ) ;
#28 = DIRECTION ( 'NONE',  ( -0.0000000000000000000, -0.0000000000000000000, -1.000000000000000000 ) ) ;
#29 = PLANE ( 'NONE',  #40 ) ;
#30 = DIRECTION ( 'NONE',  ( -0.0000000000000000000, -0.0000000000000000000, -1.000000000000000000 ) ) ;
#31 = FACE_OUTER_BOUND ( 'NONE', #11, .T. ) ;
#32 = VERTEX_POINT ( 'NONE', #199 ) ;
#33 = CARTESIAN_POINT ( 'NONE',  ( -6.133173666733495600E-016, -6.133173666733495600E-016, 7.500000000000000000 ) ) ;
#34 = ORIENTED_EDGE ( 'NONE', *, *, #245, .F. ) ;
#35 = EDGE_CURVE ( 'NONE', #297, #142, #134, .T. ) ;
#36 = SHAPE_DEFINITION_REPRESENTATION ( #53, #86 ) ;
#37 = ORIENTED_EDGE ( 'NONE', *, *, #267, .F. ) ;
#38 = LINE ( 'NONE', #246, #196 ) ;
#39 = VERTEX_POINT ( 'NONE', #140 ) ;
#40 = AXIS2_PLACEMENT_3D ( 'NONE', #17, #187, #104 ) ;
#41 =( NAMED_UNIT ( * ) SI_UNIT ( $, .STERADIAN. ) SOLID_ANGLE_UNIT ( ) );
#42 = CC_DESIGN_APPROVAL ( #18, ( #318 ) ) ;
#43 = APPLICATION_CONTEXT ( 'configuration controlled 3d designs of mechanical parts and assemblies' ) ;
#44 = EDGE_CURVE ( 'NONE', #148, #258, #173, .T. ) ;
#45 = ORIENTED_EDGE ( 'NONE', *, *, #230, .T. ) ;
#46 = DIRECTION ( 'NONE',  ( -0.0000000000000000000, -0.0000000000000000000, -1.000000000000000000 ) ) ;
#47 = ADVANCED_FACE ( 'NONE', ( #71 ), #29, .F. ) ;
#48 = ORIENTED_EDGE ( 'NONE', *, *, #35, .F. ) ;
#49 = AXIS2_PLACEMENT_3D ( 'NONE', #174, #206, #113 ) ;
#50 = CARTESIAN_POINT ( 'NONE',  ( -7.500000000000000000, -7.499999999999999100, 7.500000000000000000 ) ) ;
#51 = COORDINATED_UNIVERSAL_TIME_OFFSET ( 5, 0, .BEHIND. ) ;
#52 = DIRECTION ( 'NONE',  ( 0.0000000000000000000, 0.0000000000000000000, 1.000000000000000000 ) ) ;
#53 = PRODUCT_DEFINITION_SHAPE ( 'NONE', 'NONE',  #239 ) ;
#54 = CARTESIAN_POINT ( 'NONE',  ( 7.499999999999998200, -7.500000000000000000, 7.500000000000000000 ) ) ;
#55 = CC_DESIGN_PERSON_AND_ORGANIZATION_ASSIGNMENT ( #317, #5, ( #318 ) ) ;
#56 = CARTESIAN_POINT ( 'NONE',  ( 0.0000000000000000000, 0.0000000000000000000, 7.500000000000000000 ) ) ;
#57 = EDGE_CURVE ( 'NONE', #278, #165, #295, .T. ) ;
#58 = LINE ( 'NONE', #61, #221 ) ;
#59 = PLANE ( 'NONE',  #7 ) ;
#60 =( GEOMETRIC_REPRESENTATION_CONTEXT ( 3 ) GLOBAL_UNCERTAINTY_ASSIGNED_CONTEXT ( ( #111 ) ) GLOBAL_UNIT_ASSIGNED_CONTEXT ( ( #309, #141, #41 ) ) REPRESENTATION_CONTEXT ( 'NONE', 'WORKASPACE' ) );
#61 = CARTESIAN_POINT ( 'NONE',  ( -0.0000000000000000000, 7.499999999999999100, -7.500000000000000000 ) ) ;
#62 = VECTOR ( 'NONE', #172, 1000.000000000000000 ) ;
#63 = DIRECTION ( 'NONE',  ( 1.000000000000000000, 0.0000000000000000000, 0.0000000000000000000 ) ) ;
#64 = EDGE_CURVE ( 'NONE', #258, #131, #311, .T. ) ;
#65 = DESIGN_CONTEXT ( 'detailed design', #273, 'design' ) ;
#66 = APPROVAL_ROLE ( '' ) ;
#67 = ADVANCED_FACE ( 'NONE', ( #201 ), #291, .T. ) ;
#68 = CARTESIAN_POINT ( 'NONE',  ( -6.133173666733495600E-016, -6.133173666733495600E-016, -7.500000000000000000 ) ) ;
#69 = AXIS2_PLACEMENT_3D ( 'NONE', #229, #92, #308 ) ;
#70 = ORIENTED_EDGE ( 'NONE', *, *, #299, .F. ) ;
#71 = FACE_OUTER_BOUND ( 'NONE', #277, .T. ) ;
#72 = EDGE_LOOP ( 'NONE', ( #167, #274, #121, #45 ) ) ;
#73 = CC_DESIGN_PERSON_AND_ORGANIZATION_ASSIGNMENT ( #192, #188, ( #318 ) ) ;
#74 = DATE_AND_TIME ( #261, #4 ) ;
#75 = EDGE_CURVE ( 'NONE', #258, #39, #26, .T. ) ;
#76 = VECTOR ( 'NONE', #135, 1000.000000000000000 ) ;
#77 = PERSON_AND_ORGANIZATION ( #20, #203 ) ;
#78 = ORIENTED_EDGE ( 'NONE', *, *, #245, .T. ) ;
#79 = DIRECTION ( 'NONE',  ( -0.7071067811865474600, 0.7071067811865474600, 0.0000000000000000000 ) ) ;
#80 = APPROVAL_DATE_TIME ( #250, #18 ) ;
#81 = COORDINATED_UNIVERSAL_TIME_OFFSET ( 5, 0, .BEHIND. ) ;
#82 = EDGE_LOOP ( 'NONE', ( #247, #78, #25 ) ) ;
#83 = LINE ( 'NONE', #68, #259 ) ;
#84 = SECURITY_CLASSIFICATION ( '', '', #204 ) ;
#85 = CARTESIAN_POINT ( 'NONE',  ( -7.500000000000000000, 7.499999999999998200, 7.500000000000000000 ) ) ;
#86 = ADVANCED_BREP_SHAPE_REPRESENTATION ( 'Web Model 47047_48572', ( #207, #116, #202 ), #60 ) ;
#87 = APPROVAL_STATUS ( 'not_yet_approved' ) ;
#88 = DIRECTION ( 'NONE',  ( 0.7071067811865474600, -0.7071067811865474600, 0.0000000000000000000 ) ) ;
#89 = DATE_AND_TIME ( #153, #235 ) ;
#90 = DIRECTION ( 'NONE',  ( 0.0000000000000000000, -0.0000000000000000000, 1.000000000000000000 ) ) ;
#91 = EDGE_LOOP ( 'NONE', ( #117, #10, #260 ) ) ;
#92 = DIRECTION ( 'NONE',  ( -0.0000000000000000000, 0.0000000000000000000, 1.000000000000000000 ) ) ;
#93 = EDGE_CURVE ( 'NONE', #263, #297, #268, .T. ) ;
#94 = CC_DESIGN_PERSON_AND_ORGANIZATION_ASSIGNMENT ( #77, #8, ( #84 ) ) ;
#95 = DIRECTION ( 'NONE',  ( 0.0000000000000000000, 1.000000000000000000, -0.0000000000000000000 ) ) ;
#96 = ORIENTED_EDGE ( 'NONE', *, *, #249, .T. ) ;
#97 = CARTESIAN_POINT ( 'NONE',  ( -6.133173666733495600E-016, -6.133173666733495600E-016, -7.500000000000000000 ) ) ;
#98 = PERSON_AND_ORGANIZATION ( #20, #203 ) ;
#99 = EDGE_LOOP ( 'NONE', ( #171, #37, #34, #23 ) ) ;
#100 = CALENDAR_DATE ( 2017, 6, 6 ) ;
#101 = VERTEX_POINT ( 'NONE', #272 ) ;
#102 = APPROVAL_PERSON_ORGANIZATION ( #118, #251, #66 ) ;
#103 = ORIENTED_EDGE ( 'NONE', *, *, #249, .F. ) ;
#104 = DIRECTION ( 'NONE',  ( 0.0000000000000000000, -0.0000000000000000000, 1.000000000000000000 ) ) ;
#105 = EDGE_CURVE ( 'NONE', #39, #131, #266, .T. ) ;
#106 = CARTESIAN_POINT ( 'NONE',  ( 7.499999999999998200, 0.0000000000000000000, 7.500000000000000000 ) ) ;
#107 = COORDINATED_UNIVERSAL_TIME_OFFSET ( 5, 0, .BEHIND. ) ;
#108 = ADVANCED_FACE ( 'NONE', ( #225 ), #170, .F. ) ;
#109 = CARTESIAN_POINT ( 'NONE',  ( -7.500000000000000000, 7.499999999999998200, 7.500000000000000000 ) ) ;
#110 = EDGE_CURVE ( 'NONE', #155, #101, #290, .T. ) ;
#111 = UNCERTAINTY_MEASURE_WITH_UNIT (LENGTH_MEASURE( 1.000000000000000100E-005 ), #309, 'distance_accuracy_value', 'NONE');
#112 = CC_DESIGN_DATE_AND_TIME_ASSIGNMENT ( #217, #133, ( #84 ) ) ;
#113 = DIRECTION ( 'NONE',  ( 0.0000000000000000000, 0.0000000000000000000, 1.000000000000000000 ) ) ;
#114 = APPROVAL_DATE_TIME ( #21, #251 ) ;
#115 = APPROVAL_STATUS ( 'not_yet_approved' ) ;
#116 = MANIFOLD_SOLID_BREP ( 'Boss-Extrude3', #286 ) ;
#117 = ORIENTED_EDGE ( 'NONE', *, *, #22, .F. ) ;
#118 = PERSON_AND_ORGANIZATION ( #20, #203 ) ;
#119 = PLANE ( 'NONE',  #194 ) ;
#120 = LINE ( 'NONE', #280, #180 ) ;
#121 = ORIENTED_EDGE ( 'NONE', *, *, #283, .F. ) ;
#122 = EDGE_CURVE ( 'NONE', #32, #297, #83, .T. ) ;
#123 = CARTESIAN_POINT ( 'NONE',  ( -6.133173666733495600E-016, -6.133173666733495600E-016, 7.500000000000000000 ) ) ;
#124 = CARTESIAN_POINT ( 'NONE',  ( 7.499999999999998200, 0.0000000000000000000, 7.500000000000000000 ) ) ;
#125 = APPROVAL_ROLE ( '' ) ;
#126 = CALENDAR_DATE ( 2017, 6, 6 ) ;
#127 = LINE ( 'NONE', #123, #211 ) ;
#128 = EDGE_LOOP ( 'NONE', ( #304, #252, #292 ) ) ;
#129 = APPROVAL ( #161, 'UNSPECIFIED' ) ;
#130 = ORIENTED_EDGE ( 'NONE', *, *, #321, .T. ) ;
#131 = VERTEX_POINT ( 'NONE', #190 ) ;
#132 = ORIENTED_EDGE ( 'NONE', *, *, #44, .T. ) ;
#133 = DATE_TIME_ROLE ( 'classification_date' ) ;
#134 = LINE ( 'NONE', #241, #14 ) ;
#135 = DIRECTION ( 'NONE',  ( -0.0000000000000000000, -0.0000000000000000000, -1.000000000000000000 ) ) ;
#136 = ADVANCED_FACE ( 'NONE', ( #281 ), #119, .T. ) ;
#137 = MECHANICAL_CONTEXT ( 'NONE', #43, 'mechanical' ) ;
#138 = LOCAL_TIME ( 12, 59, 41.00000000000000000, #107 ) ;
#139 = VECTOR ( 'NONE', #240, 1000.000000000000000 ) ;
#140 = CARTESIAN_POINT ( 'NONE',  ( -7.500000000000000000, 7.499999999999998200, -7.500000000000000000 ) ) ;
#141 =( NAMED_UNIT ( * ) PLANE_ANGLE_UNIT ( ) SI_UNIT ( $, .RADIAN. ) );
#142 = VERTEX_POINT ( 'NONE', #310 ) ;
#143 = EDGE_CURVE ( 'NONE', #148, #165, #296, .T. ) ;
#144 = CARTESIAN_POINT ( 'NONE',  ( -6.133173666733495600E-016, -6.133173666733495600E-016, 7.500000000000000000 ) ) ;
#145 = FACE_OUTER_BOUND ( 'NONE', #91, .T. ) ;
#146 = CARTESIAN_POINT ( 'NONE',  ( 0.0000000000000000000, 7.499999999999999100, 7.500000000000000000 ) ) ;
#147 = CARTESIAN_POINT ( 'NONE',  ( 0.0000000000000000000, 0.0000000000000000000, 7.500000000000000000 ) ) ;
#148 = VERTEX_POINT ( 'NONE', #209 ) ;
#149 = VECTOR ( 'NONE', #1, 1000.000000000000100 ) ;
#150 = VECTOR ( 'NONE', #218, 1000.000000000000000 ) ;
#151 = APPROVAL_PERSON_ORGANIZATION ( #253, #18, #125 ) ;
#152 = CC_DESIGN_APPROVAL ( #129, ( #84 ) ) ;
#153 = CALENDAR_DATE ( 2017, 6, 6 ) ;
#154 = DIRECTION ( 'NONE',  ( 0.0000000000000000000, 1.000000000000000000, -0.0000000000000000000 ) ) ;
#155 = VERTEX_POINT ( 'NONE', #109 ) ;
#156 = PLANE ( 'NONE',  #49 ) ;
#157 = ORIENTED_EDGE ( 'NONE', *, *, #267, .T. ) ;
#158 = COORDINATED_UNIVERSAL_TIME_OFFSET ( 5, 0, .BEHIND. ) ;
#159 = ADVANCED_FACE ( 'NONE', ( #316 ), #219, .F. ) ;
#160 = PLANE ( 'NONE',  #312 ) ;
#161 = APPROVAL_STATUS ( 'not_yet_approved' ) ;
#162 = CC_DESIGN_SECURITY_CLASSIFICATION ( #84, ( #318 ) ) ;
#163 = DATE_TIME_ROLE ( 'creation_date' ) ;
#164 = LINE ( 'NONE', #106, #220 ) ;
#165 = VERTEX_POINT ( 'NONE', #24 ) ;
#166 = DIRECTION ( 'NONE',  ( -1.000000000000000000, 0.0000000000000000000, 0.0000000000000000000 ) ) ;
#167 = ORIENTED_EDGE ( 'NONE', *, *, #122, .T. ) ;
#168 = EDGE_LOOP ( 'NONE', ( #177, #175, #227, #96 ) ) ;
#169 = VECTOR ( 'NONE', #243, 1000.000000000000100 ) ;
#170 = PLANE ( 'NONE',  #216 ) ;
#171 = ORIENTED_EDGE ( 'NONE', *, *, #35, .T. ) ;
#172 = DIRECTION ( 'NONE',  ( 1.000000000000000000, 0.0000000000000000000, 0.0000000000000000000 ) ) ;
#173 = LINE ( 'NONE', #50, #150 ) ;
#174 = CARTESIAN_POINT ( 'NONE',  ( -7.500000000000000000, 0.0000000000000000000, 7.500000000000000000 ) ) ;
#175 = ORIENTED_EDGE ( 'NONE', *, *, #321, .F. ) ;
#176 = CARTESIAN_POINT ( 'NONE',  ( 7.499999999999998200, -7.500000000000000000, -7.500000000000000000 ) ) ;
#177 = ORIENTED_EDGE ( 'NONE', *, *, #105, .F. ) ;
#178 = PRODUCT_RELATED_PRODUCT_CATEGORY ( 'detail', '', ( #287 ) ) ;
#179 = FACE_OUTER_BOUND ( 'NONE', #168, .T. ) ;
#180 = VECTOR ( 'NONE', #208, 1000.000000000000000 ) ;
#181 = CARTESIAN_POINT ( 'NONE',  ( -6.133173666733495600E-016, -6.133173666733495600E-016, 7.500000000000000000 ) ) ;
#182 = LINE ( 'NONE', #183, #76 ) ;
#183 = CARTESIAN_POINT ( 'NONE',  ( 7.499999999999998200, 7.499999999999999100, 7.500000000000000000 ) ) ;
#184 = DIRECTION ( 'NONE',  ( -0.0000000000000000000, 0.0000000000000000000, 1.000000000000000000 ) ) ;
#185 = DIRECTION ( 'NONE',  ( 1.000000000000000000, 0.0000000000000000000, 0.0000000000000000000 ) ) ;
#186 = LINE ( 'NONE', #301, #139 ) ;
#187 = DIRECTION ( 'NONE',  ( 0.0000000000000000000, 1.000000000000000000, 0.0000000000000000000 ) ) ;
#188 = PERSON_AND_ORGANIZATION_ROLE ( 'design_supplier' ) ;
#189 = CARTESIAN_POINT ( 'NONE',  ( -7.500000000000000000, -7.499999999999999100, -7.500000000000000000 ) ) ;
#190 = CARTESIAN_POINT ( 'NONE',  ( 7.499999999999998200, -7.500000000000000000, -7.500000000000000000 ) ) ;
#191 = CARTESIAN_POINT ( 'NONE',  ( 0.0000000000000000000, -7.499999999999999100, -7.500000000000000000 ) ) ;
#192 = PERSON_AND_ORGANIZATION ( #20, #203 ) ;
#193 = EDGE_LOOP ( 'NONE', ( #70, #288, #2, #157 ) ) ;
#194 = AXIS2_PLACEMENT_3D ( 'NONE', #146, #282, #90 ) ;
#195 = PLANE ( 'NONE',  #69 ) ;
#196 = VECTOR ( 'NONE', #46, 1000.000000000000000 ) ;
#197 = EDGE_LOOP ( 'NONE', ( #212, #264, #231, #130 ) ) ;
#198 = CARTESIAN_POINT ( 'NONE',  ( 0.0000000000000000000, 0.0000000000000000000, 0.0000000000000000000 ) ) ;
#199 = CARTESIAN_POINT ( 'NONE',  ( -7.500000000000000000, 7.499999999999998200, -7.500000000000000000 ) ) ;
#200 = ORIENTED_EDGE ( 'NONE', *, *, #122, .F. ) ;
#201 = FACE_OUTER_BOUND ( 'NONE', #82, .T. ) ;
#202 = AXIS2_PLACEMENT_3D ( 'NONE', #198, #16, #285 ) ;
#203 = ORGANIZATION ( 'UNSPECIFIED', 'UNSPECIFIED', '' ) ;
#204 = SECURITY_CLASSIFICATION_LEVEL ( 'unclassified' ) ;
#205 = ORIENTED_EDGE ( 'NONE', *, *, #299, .T. ) ;
#206 = DIRECTION ( 'NONE',  ( -1.000000000000000000, 0.0000000000000000000, 0.0000000000000000000 ) ) ;
#207 = MANIFOLD_SOLID_BREP ( 'Boss-Extrude2', #226 ) ;
#208 = DIRECTION ( 'NONE',  ( -0.0000000000000000000, -0.0000000000000000000, -1.000000000000000000 ) ) ;
#209 = CARTESIAN_POINT ( 'NONE',  ( -7.500000000000000000, -7.499999999999999100, 7.500000000000000000 ) ) ;
#210 = DIRECTION ( 'NONE',  ( 1.000000000000000000, 0.0000000000000000000, 0.0000000000000000000 ) ) ;
#211 = VECTOR ( 'NONE', #289, 1000.000000000000100 ) ;
#212 = ORIENTED_EDGE ( 'NONE', *, *, #75, .F. ) ;
#213 = CARTESIAN_POINT ( 'NONE',  ( 0.0000000000000000000, 7.499999999999999100, 7.500000000000000000 ) ) ;
#214 = VECTOR ( 'NONE', #185, 1000.000000000000000 ) ;
#215 = ADVANCED_FACE ( 'NONE', ( #275 ), #305, .F. ) ;
#216 = AXIS2_PLACEMENT_3D ( 'NONE', #124, #166, #52 ) ;
#217 = DATE_AND_TIME ( #279, #271 ) ;
#218 = DIRECTION ( 'NONE',  ( -0.0000000000000000000, -0.0000000000000000000, -1.000000000000000000 ) ) ;
#219 = PLANE ( 'NONE',  #262 ) ;
#220 = VECTOR ( 'NONE', #154, 1000.000000000000000 ) ;
#221 = VECTOR ( 'NONE', #63, 1000.000000000000000 ) ;
#222 = CC_DESIGN_PERSON_AND_ORGANIZATION_ASSIGNMENT ( #269, #298, ( #287 ) ) ;
#223 = DIRECTION ( 'NONE',  ( 1.000000000000000000, 0.0000000000000000000, 0.0000000000000000000 ) ) ;
#224 = CARTESIAN_POINT ( 'NONE',  ( -7.500000000000000000, 7.499999999999998200, 7.500000000000000000 ) ) ;
#225 = FACE_OUTER_BOUND ( 'NONE', #99, .T. ) ;
#226 = CLOSED_SHELL ( 'NONE', ( #257, #47, #306, #236, #159 ) ) ;
#227 = ORIENTED_EDGE ( 'NONE', *, *, #57, .T. ) ;
#228 = CARTESIAN_POINT ( 'NONE',  ( 7.499999999999998200, -7.500000000000000000, 7.500000000000000000 ) ) ;
#229 = CARTESIAN_POINT ( 'NONE',  ( 0.0000000000000000000, 0.0000000000000000000, -7.500000000000000000 ) ) ;
#230 = EDGE_CURVE ( 'NONE', #155, #32, #242, .T. ) ;
#231 = ORIENTED_EDGE ( 'NONE', *, *, #22, .T. ) ;
#232 = PERSON_AND_ORGANIZATION_ROLE ( 'creator' ) ;
#233 = PERSON_AND_ORGANIZATION ( #20, #203 ) ;
#234 = ORIENTED_EDGE ( 'NONE', *, *, #64, .T. ) ;
#235 = LOCAL_TIME ( 12, 59, 41.00000000000000000, #158 ) ;
#236 = ADVANCED_FACE ( 'NONE', ( #145 ), #59, .T. ) ;
#237 = APPLICATION_PROTOCOL_DEFINITION ( 'international standard', 'config_control_design', 1994, #273 ) ;
#238 = CARTESIAN_POINT ( 'NONE',  ( -7.500000000000000000, 0.0000000000000000000, -7.500000000000000000 ) ) ;
#239 = PRODUCT_DEFINITION ( 'UNKNOWN', '', #318, #65 ) ;
#240 = DIRECTION ( 'NONE',  ( 0.0000000000000000000, 1.000000000000000000, -0.0000000000000000000 ) ) ;
#241 = CARTESIAN_POINT ( 'NONE',  ( 7.499999999999998200, 0.0000000000000000000, -7.500000000000000000 ) ) ;
#242 = LINE ( 'NONE', #224, #255 ) ;
#243 = DIRECTION ( 'NONE',  ( 0.7071067811865474600, -0.7071067811865474600, 0.0000000000000000000 ) ) ;
#244 = ORIENTED_EDGE ( 'NONE', *, *, #143, .F. ) ;
#245 = EDGE_CURVE ( 'NONE', #263, #101, #164, .T. ) ;
#246 = CARTESIAN_POINT ( 'NONE',  ( 7.499999999999998200, -7.500000000000000000, 7.500000000000000000 ) ) ;
#247 = ORIENTED_EDGE ( 'NONE', *, *, #283, .T. ) ;
#248 = DIRECTION ( 'NONE',  ( -0.0000000000000000000, 0.0000000000000000000, 1.000000000000000000 ) ) ;
#249 = EDGE_CURVE ( 'NONE', #165, #131, #38, .T. ) ;
#250 = DATE_AND_TIME ( #126, #27 ) ;
#251 = APPROVAL ( #87, 'UNSPECIFIED' ) ;
#252 = ORIENTED_EDGE ( 'NONE', *, *, #105, .T. ) ;
#253 = PERSON_AND_ORGANIZATION ( #20, #203 ) ;
#254 = APPROVAL_PERSON_ORGANIZATION ( #98, #129, #307 ) ;
#255 = VECTOR ( 'NONE', #30, 1000.000000000000000 ) ;
#256 = DIRECTION ( 'NONE',  ( 1.000000000000000000, 0.0000000000000000000, 0.0000000000000000000 ) ) ;
#257 = ADVANCED_FACE ( 'NONE', ( #303 ), #156, .T. ) ;
#258 = VERTEX_POINT ( 'NONE', #189 ) ;
#259 = VECTOR ( 'NONE', #88, 1000.000000000000100 ) ;
#260 = ORIENTED_EDGE ( 'NONE', *, *, #57, .F. ) ;
#261 = CALENDAR_DATE ( 2017, 6, 6 ) ;
#262 = AXIS2_PLACEMENT_3D ( 'NONE', #293, #315, #223 ) ;
#263 = VERTEX_POINT ( 'NONE', #228 ) ;
#264 = ORIENTED_EDGE ( 'NONE', *, *, #44, .F. ) ;
#265 = VECTOR ( 'NONE', #95, 1000.000000000000000 ) ;
#266 = LINE ( 'NONE', #97, #149 ) ;
#267 = EDGE_CURVE ( 'NONE', #101, #142, #182, .T. ) ;
#268 = LINE ( 'NONE', #54, #3 ) ;
#269 = PERSON_AND_ORGANIZATION ( #20, #203 ) ;
#270 = CC_DESIGN_APPROVAL ( #251, ( #239 ) ) ;
#271 = LOCAL_TIME ( 12, 59, 41.00000000000000000, #51 ) ;
#272 = CARTESIAN_POINT ( 'NONE',  ( 7.499999999999998200, 7.499999999999999100, 7.500000000000000000 ) ) ;
#273 = APPLICATION_CONTEXT ( 'configuration controlled 3d designs of mechanical parts and assemblies' ) ;
#274 = ORIENTED_EDGE ( 'NONE', *, *, #93, .F. ) ;
#275 = FACE_OUTER_BOUND ( 'NONE', #72, .T. ) ;
#276 = VECTOR ( 'NONE', #256, 1000.000000000000000 ) ;
#277 = EDGE_LOOP ( 'NONE', ( #234, #103, #244, #132 ) ) ;
#278 = VERTEX_POINT ( 'NONE', #85 ) ;
#279 = CALENDAR_DATE ( 2017, 6, 6 ) ;
#280 = CARTESIAN_POINT ( 'NONE',  ( -7.500000000000000000, 7.499999999999998200, 7.500000000000000000 ) ) ;
#281 = FACE_OUTER_BOUND ( 'NONE', #193, .T. ) ;
#282 = DIRECTION ( 'NONE',  ( 0.0000000000000000000, 1.000000000000000000, 0.0000000000000000000 ) ) ;
#283 = EDGE_CURVE ( 'NONE', #155, #263, #127, .T. ) ;
#284 = CC_DESIGN_PERSON_AND_ORGANIZATION_ASSIGNMENT ( #233, #232, ( #239 ) ) ;
#285 = DIRECTION ( 'NONE',  ( 1.000000000000000000, 0.0000000000000000000, 0.0000000000000000000 ) ) ;
#286 = CLOSED_SHELL ( 'NONE', ( #215, #108, #136, #67, #13 ) ) ;
#287 = PRODUCT ( 'Web Model 47047_48572', 'Web Model 47047_48572', '', ( #137 ) ) ;
#288 = ORIENTED_EDGE ( 'NONE', *, *, #230, .F. ) ;
#289 = DIRECTION ( 'NONE',  ( 0.7071067811865474600, -0.7071067811865474600, 0.0000000000000000000 ) ) ;
#290 = LINE ( 'NONE', #213, #276 ) ;
#291 = PLANE ( 'NONE',  #314 ) ;
#292 = ORIENTED_EDGE ( 'NONE', *, *, #64, .F. ) ;
#293 = CARTESIAN_POINT ( 'NONE',  ( 0.0000000000000000000, 0.0000000000000000000, -7.500000000000000000 ) ) ;
#294 = AXIS2_PLACEMENT_3D ( 'NONE', #33, #319, #79 ) ;
#295 = LINE ( 'NONE', #144, #169 ) ;
#296 = LINE ( 'NONE', #320, #214 ) ;
#297 = VERTEX_POINT ( 'NONE', #176 ) ;
#298 = PERSON_AND_ORGANIZATION_ROLE ( 'design_owner' ) ;
#299 = EDGE_CURVE ( 'NONE', #32, #142, #58, .T. ) ;
#300 = CC_DESIGN_DATE_AND_TIME_ASSIGNMENT ( #89, #163, ( #239 ) ) ;
#301 = CARTESIAN_POINT ( 'NONE',  ( -7.500000000000000000, 0.0000000000000000000, 7.500000000000000000 ) ) ;
#302 = APPLICATION_PROTOCOL_DEFINITION ( 'international standard', 'config_control_design', 1994, #43 ) ;
#303 = FACE_OUTER_BOUND ( 'NONE', #197, .T. ) ;
#304 = ORIENTED_EDGE ( 'NONE', *, *, #75, .T. ) ;
#305 = PLANE ( 'NONE',  #294 ) ;
#306 = ADVANCED_FACE ( 'NONE', ( #179 ), #160, .T. ) ;
#307 = APPROVAL_ROLE ( '' ) ;
#308 = DIRECTION ( 'NONE',  ( 1.000000000000000000, 0.0000000000000000000, 0.0000000000000000000 ) ) ;
#309 =( LENGTH_UNIT ( ) NAMED_UNIT ( * ) SI_UNIT ( .MILLI., .METRE. ) );
#310 = CARTESIAN_POINT ( 'NONE',  ( 7.499999999999998200, 7.499999999999999100, -7.500000000000000000 ) ) ;
#311 = LINE ( 'NONE', #191, #62 ) ;
#312 = AXIS2_PLACEMENT_3D ( 'NONE', #181, #19, #9 ) ;
#313 = APPROVAL_DATE_TIME ( #74, #129 ) ;
#314 = AXIS2_PLACEMENT_3D ( 'NONE', #147, #184, #12 ) ;
#315 = DIRECTION ( 'NONE',  ( -0.0000000000000000000, 0.0000000000000000000, 1.000000000000000000 ) ) ;
#316 = FACE_OUTER_BOUND ( 'NONE', #128, .T. ) ;
#317 = PERSON_AND_ORGANIZATION ( #20, #203 ) ;
#318 = PRODUCT_DEFINITION_FORMATION_WITH_SPECIFIED_SOURCE ( 'ANY', '', #287, .NOT_KNOWN. ) ;
#319 = DIRECTION ( 'NONE',  ( 0.7071067811865475700, 0.7071067811865475700, -0.0000000000000000000 ) ) ;
#320 = CARTESIAN_POINT ( 'NONE',  ( 0.0000000000000000000, -7.499999999999999100, 7.500000000000000000 ) ) ;
#321 = EDGE_CURVE ( 'NONE', #278, #39, #120, .T. ) ;
ENDSEC;
END-ISO-10303-21;
