ISO-10303-21;
HEADER;
FILE_DESCRIPTION (( 'STEP AP203' ),
    '1' );
FILE_NAME ('Web Model 19837_19856.step',
    '2022-04-06T15:03:27',
    ( 'WC' ),
    ( 'Windows Central' ),
    'SwSTEP 2.0',
    'SolidWorks 2021',
    '' );
FILE_SCHEMA (( 'CONFIG_CONTROL_DESIGN' ));
ENDSEC;

DATA;
#1 = ORIENTED_EDGE ( 'NONE', *, *, #121, .T. ) ;
#2 = ADVANCED_FACE ( 'NONE', ( #143 ), #86, .T. ) ;
#3 = APPROVAL_PERSON_ORGANIZATION ( #23, #98, #82 ) ;
#4 = ORIENTED_EDGE ( 'NONE', *, *, #102, .F. ) ;
#5 = DIRECTION ( 'NONE',  ( 0.000000000000000000, 0.000000000000000000, 1.000000000000000000 ) ) ;
#6 = CARTESIAN_POINT ( 'NONE',  ( 0.000000000000000000, 0.000000000000000000, 0.000000000000000000 ) ) ;
#7 = AXIS2_PLACEMENT_3D ( 'NONE', #150, #57, #49 ) ;
#8 = DIRECTION ( 'NONE',  ( -0.000000000000000000, -0.000000000000000000, -1.000000000000000000 ) ) ;
#9 = CARTESIAN_POINT ( 'NONE',  ( -12.50000000000000000, 0.000000000000000000, 3.000000000000000000 ) ) ;
#10 = CALENDAR_DATE ( 2022, 6, 4 ) ;
#11 = COORDINATED_UNIVERSAL_TIME_OFFSET ( 5, 0, .BEHIND. ) ;
#12 = CC_DESIGN_PERSON_AND_ORGANIZATION_ASSIGNMENT ( #95, #155, ( #17 ) ) ;
#13 = SECURITY_CLASSIFICATION_LEVEL ( 'unclassified' ) ;
#14 = ORIENTED_EDGE ( 'NONE', *, *, #105, .T. ) ;
#15 = CC_DESIGN_APPROVAL ( #48, ( #61 ) ) ;
#16 = CC_DESIGN_APPROVAL ( #40, ( #17 ) ) ;
#17 = PRODUCT_DEFINITION ( 'UNKNOWN', '', #163, #90 ) ;
#18 = DIRECTION ( 'NONE',  ( 0.000000000000000000, 0.000000000000000000, 1.000000000000000000 ) ) ;
#19 =( GEOMETRIC_REPRESENTATION_CONTEXT ( 3 ) GLOBAL_UNCERTAINTY_ASSIGNED_CONTEXT ( ( #159 ) ) GLOBAL_UNIT_ASSIGNED_CONTEXT ( ( #28, #43, #54 ) ) REPRESENTATION_CONTEXT ( 'NONE', 'WORKASPACE' ) );
#20 = APPROVAL_ROLE ( '' ) ;
#21 = CALENDAR_DATE ( 2022, 6, 4 ) ;
#22 = PRODUCT ( 'Web Model 19837_19856', 'Web Model 19837_19856', '', ( #73 ) ) ;
#23 = PERSON_AND_ORGANIZATION ( #165, #29 ) ;
#24 = COORDINATED_UNIVERSAL_TIME_OFFSET ( 5, 0, .BEHIND. ) ;
#25 = ORIENTED_EDGE ( 'NONE', *, *, #144, .F. ) ;
#26 = CC_DESIGN_PERSON_AND_ORGANIZATION_ASSIGNMENT ( #141, #154, ( #163 ) ) ;
#27 = DIRECTION ( 'NONE',  ( 0.000000000000000000, 0.000000000000000000, 1.000000000000000000 ) ) ;
#28 =( LENGTH_UNIT ( ) NAMED_UNIT ( * ) SI_UNIT ( .MILLI., .METRE. ) );
#29 = ORGANIZATION ( 'UNSPECIFIED', 'UNSPECIFIED', '' ) ;
#30 = DIRECTION ( 'NONE',  ( 1.000000000000000000, 0.000000000000000000, 0.000000000000000000 ) ) ;
#31 = DIRECTION ( 'NONE',  ( -0.000000000000000000, -0.000000000000000000, -1.000000000000000000 ) ) ;
#32 = APPLICATION_PROTOCOL_DEFINITION ( 'international standard', 'config_control_design', 1994, #146 ) ;
#33 = AXIS2_PLACEMENT_3D ( 'NONE', #170, #8, #115 ) ;
#34 = APPROVAL_DATE_TIME ( #171, #40 ) ;
#35 = PERSON_AND_ORGANIZATION_ROLE ( 'classification_officer' ) ;
#36 = CC_DESIGN_SECURITY_CLASSIFICATION ( #61, ( #163 ) ) ;
#37 = COORDINATED_UNIVERSAL_TIME_OFFSET ( 5, 0, .BEHIND. ) ;
#38 = ORIENTED_EDGE ( 'NONE', *, *, #42, .T. ) ;
#39 = ORIENTED_EDGE ( 'NONE', *, *, #105, .F. ) ;
#40 = APPROVAL ( #152, 'UNSPECIFIED' ) ;
#41 = EDGE_LOOP ( 'NONE', ( #38, #66 ) ) ;
#42 = EDGE_CURVE ( 'NONE', #142, #124, #87, .T. ) ;
#43 =( NAMED_UNIT ( * ) PLANE_ANGLE_UNIT ( ) SI_UNIT ( $, .RADIAN. ) );
#44 = VERTEX_POINT ( 'NONE', #72 ) ;
#45 = CARTESIAN_POINT ( 'NONE',  ( 12.50000000000000000, 1.530808498934191521E-15, 3.000000000000000000 ) ) ;
#46 = DIRECTION ( 'NONE',  ( 1.000000000000000000, 0.000000000000000000, 0.000000000000000000 ) ) ;
#47 = PERSON_AND_ORGANIZATION_ROLE ( 'design_owner' ) ;
#48 = APPROVAL ( #136, 'UNSPECIFIED' ) ;
#49 = DIRECTION ( 'NONE',  ( 1.000000000000000000, 0.000000000000000000, 0.000000000000000000 ) ) ;
#50 = CALENDAR_DATE ( 2022, 6, 4 ) ;
#51 = APPROVAL_DATE_TIME ( #173, #98 ) ;
#52 = CLOSED_SHELL ( 'NONE', ( #2, #83, #111, #53 ) ) ;
#53 = ADVANCED_FACE ( 'NONE', ( #107 ), #133, .F. ) ;
#54 =( NAMED_UNIT ( * ) SI_UNIT ( $, .STERADIAN. ) SOLID_ANGLE_UNIT ( ) );
#55 = LOCAL_TIME ( 11, 3, 27.00000000000000000, #37 ) ;
#56 = ORIENTED_EDGE ( 'NONE', *, *, #42, .F. ) ;
#57 = DIRECTION ( 'NONE',  ( 0.000000000000000000, 0.000000000000000000, 1.000000000000000000 ) ) ;
#58 = CARTESIAN_POINT ( 'NONE',  ( 0.000000000000000000, 0.000000000000000000, 0.000000000000000000 ) ) ;
#59 = AXIS2_PLACEMENT_3D ( 'NONE', #6, #131, #106 ) ;
#60 = CC_DESIGN_PERSON_AND_ORGANIZATION_ASSIGNMENT ( #122, #35, ( #61 ) ) ;
#61 = SECURITY_CLASSIFICATION ( '', '', #13 ) ;
#62 = DIRECTION ( 'NONE',  ( 0.000000000000000000, 0.000000000000000000, 1.000000000000000000 ) ) ;
#63 = VECTOR ( 'NONE', #31, 1000.000000000000000 ) ;
#64 = CALENDAR_DATE ( 2022, 6, 4 ) ;
#65 = APPROVAL_DATE_TIME ( #123, #48 ) ;
#66 = ORIENTED_EDGE ( 'NONE', *, *, #75, .T. ) ;
#67 = CC_DESIGN_DATE_AND_TIME_ASSIGNMENT ( #153, #108, ( #17 ) ) ;
#68 = EDGE_LOOP ( 'NONE', ( #76, #1, #14, #25 ) ) ;
#69 = LOCAL_TIME ( 11, 3, 27.00000000000000000, #97 ) ;
#70 = CARTESIAN_POINT ( 'NONE',  ( 0.000000000000000000, 0.000000000000000000, 3.000000000000000000 ) ) ;
#71 = EDGE_LOOP ( 'NONE', ( #4, #39 ) ) ;
#72 = CARTESIAN_POINT ( 'NONE',  ( 12.50000000000000000, 1.530808498934191521E-15, 0.000000000000000000 ) ) ;
#73 = MECHANICAL_CONTEXT ( 'NONE', #112, 'mechanical' ) ;
#74 = APPLICATION_PROTOCOL_DEFINITION ( 'international standard', 'config_control_design', 1994, #112 ) ;
#75 = EDGE_CURVE ( 'NONE', #124, #142, #134, .T. ) ;
#76 = ORIENTED_EDGE ( 'NONE', *, *, #75, .F. ) ;
#77 = FACE_OUTER_BOUND ( 'NONE', #41, .T. ) ;
#78 = VECTOR ( 'NONE', #169, 1000.000000000000000 ) ;
#79 = DIRECTION ( 'NONE',  ( 1.000000000000000000, 0.000000000000000000, -0.000000000000000000 ) ) ;
#80 = SHAPE_DEFINITION_REPRESENTATION ( #138, #132 ) ;
#81 = APPROVAL_STATUS ( 'not_yet_approved' ) ;
#82 = APPROVAL_ROLE ( '' ) ;
#83 = ADVANCED_FACE ( 'NONE', ( #166 ), #88, .T. ) ;
#84 = ORIENTED_EDGE ( 'NONE', *, *, #121, .F. ) ;
#85 = APPROVAL_PERSON_ORGANIZATION ( #109, #48, #96 ) ;
#86 = CYLINDRICAL_SURFACE ( 'NONE', #172, 12.50000000000000000 ) ;
#87 = CIRCLE ( 'NONE', #113, 12.50000000000000000 ) ;
#88 = CYLINDRICAL_SURFACE ( 'NONE', #33, 12.50000000000000000 ) ;
#89 = CIRCLE ( 'NONE', #139, 12.50000000000000000 ) ;
#90 = DESIGN_CONTEXT ( 'detailed design', #146, 'design' ) ;
#91 = PERSON_AND_ORGANIZATION ( #165, #29 ) ;
#92 = AXIS2_PLACEMENT_3D ( 'NONE', #103, #18, #46 ) ;
#93 = APPROVAL_PERSON_ORGANIZATION ( #91, #40, #20 ) ;
#94 = DIRECTION ( 'NONE',  ( 0.000000000000000000, 0.000000000000000000, 1.000000000000000000 ) ) ;
#95 = PERSON_AND_ORGANIZATION ( #165, #29 ) ;
#96 = APPROVAL_ROLE ( '' ) ;
#97 = COORDINATED_UNIVERSAL_TIME_OFFSET ( 5, 0, .BEHIND. ) ;
#98 = APPROVAL ( #81, 'UNSPECIFIED' ) ;
#99 = LOCAL_TIME ( 11, 3, 27.00000000000000000, #24 ) ;
#100 = DIRECTION ( 'NONE',  ( -0.000000000000000000, -0.000000000000000000, -1.000000000000000000 ) ) ;
#101 = ORIENTED_EDGE ( 'NONE', *, *, #144, .T. ) ;
#102 = EDGE_CURVE ( 'NONE', #149, #44, #89, .T. ) ;
#103 = CARTESIAN_POINT ( 'NONE',  ( 0.000000000000000000, 0.000000000000000000, 3.000000000000000000 ) ) ;
#104 = CARTESIAN_POINT ( 'NONE',  ( -12.50000000000000000, 0.000000000000000000, 0.000000000000000000 ) ) ;
#105 = EDGE_CURVE ( 'NONE', #44, #149, #148, .T. ) ;
#106 = DIRECTION ( 'NONE',  ( 1.000000000000000000, 0.000000000000000000, -0.000000000000000000 ) ) ;
#107 = FACE_OUTER_BOUND ( 'NONE', #71, .T. ) ;
#108 = DATE_TIME_ROLE ( 'creation_date' ) ;
#109 = PERSON_AND_ORGANIZATION ( #165, #29 ) ;
#110 = AXIS2_PLACEMENT_3D ( 'NONE', #167, #27, #79 ) ;
#111 = ADVANCED_FACE ( 'NONE', ( #77 ), #116, .T. ) ;
#112 = APPLICATION_CONTEXT ( 'configuration controlled 3d designs of mechanical parts and assemblies' ) ;
#113 = AXIS2_PLACEMENT_3D ( 'NONE', #127, #94, #120 ) ;
#114 = PERSON_AND_ORGANIZATION ( #165, #29 ) ;
#115 = DIRECTION ( 'NONE',  ( -1.000000000000000000, 0.000000000000000000, 0.000000000000000000 ) ) ;
#116 = PLANE ( 'NONE',  #110 ) ;
#117 = CARTESIAN_POINT ( 'NONE',  ( 0.000000000000000000, 0.000000000000000000, 0.000000000000000000 ) ) ;
#118 = LOCAL_TIME ( 11, 3, 27.00000000000000000, #11 ) ;
#119 = COORDINATED_UNIVERSAL_TIME_OFFSET ( 5, 0, .BEHIND. ) ;
#120 = DIRECTION ( 'NONE',  ( 1.000000000000000000, 0.000000000000000000, 0.000000000000000000 ) ) ;
#121 = EDGE_CURVE ( 'NONE', #124, #44, #129, .T. ) ;
#122 = PERSON_AND_ORGANIZATION ( #165, #29 ) ;
#123 = DATE_AND_TIME ( #10, #168 ) ;
#124 = VERTEX_POINT ( 'NONE', #45 ) ;
#125 = AXIS2_PLACEMENT_3D ( 'NONE', #117, #5, #30 ) ;
#126 = CARTESIAN_POINT ( 'NONE',  ( -12.50000000000000000, 0.000000000000000000, 3.000000000000000000 ) ) ;
#127 = CARTESIAN_POINT ( 'NONE',  ( 0.000000000000000000, 0.000000000000000000, 3.000000000000000000 ) ) ;
#128 = ORIENTED_EDGE ( 'NONE', *, *, #102, .T. ) ;
#129 = LINE ( 'NONE', #158, #78 ) ;
#130 = EDGE_LOOP ( 'NONE', ( #84, #56, #101, #128 ) ) ;
#131 = DIRECTION ( 'NONE',  ( 0.000000000000000000, 0.000000000000000000, 1.000000000000000000 ) ) ;
#132 = ADVANCED_BREP_SHAPE_REPRESENTATION ( 'Web Model 19837_19856', ( #135, #125 ), #19 ) ;
#133 = PLANE ( 'NONE',  #59 ) ;
#134 = CIRCLE ( 'NONE', #92, 12.50000000000000000 ) ;
#135 = MANIFOLD_SOLID_BREP ( 'Boss-Extrude1', #52 ) ;
#136 = APPROVAL_STATUS ( 'not_yet_approved' ) ;
#137 = PRODUCT_RELATED_PRODUCT_CATEGORY ( 'detail', '', ( #22 ) ) ;
#138 = PRODUCT_DEFINITION_SHAPE ( 'NONE', 'NONE',  #17 ) ;
#139 = AXIS2_PLACEMENT_3D ( 'NONE', #58, #62, #147 ) ;
#140 = DATE_TIME_ROLE ( 'classification_date' ) ;
#141 = PERSON_AND_ORGANIZATION ( #165, #29 ) ;
#142 = VERTEX_POINT ( 'NONE', #9 ) ;
#143 = FACE_OUTER_BOUND ( 'NONE', #68, .T. ) ;
#144 = EDGE_CURVE ( 'NONE', #142, #149, #160, .T. ) ;
#145 = CC_DESIGN_APPROVAL ( #98, ( #163 ) ) ;
#146 = APPLICATION_CONTEXT ( 'configuration controlled 3d designs of mechanical parts and assemblies' ) ;
#147 = DIRECTION ( 'NONE',  ( 1.000000000000000000, 0.000000000000000000, 0.000000000000000000 ) ) ;
#148 = CIRCLE ( 'NONE', #7, 12.50000000000000000 ) ;
#149 = VERTEX_POINT ( 'NONE', #104 ) ;
#150 = CARTESIAN_POINT ( 'NONE',  ( 0.000000000000000000, 0.000000000000000000, 0.000000000000000000 ) ) ;
#151 = CC_DESIGN_DATE_AND_TIME_ASSIGNMENT ( #162, #140, ( #61 ) ) ;
#152 = APPROVAL_STATUS ( 'not_yet_approved' ) ;
#153 = DATE_AND_TIME ( #164, #55 ) ;
#154 = PERSON_AND_ORGANIZATION_ROLE ( 'creator' ) ;
#155 = PERSON_AND_ORGANIZATION_ROLE ( 'creator' ) ;
#156 = PERSON_AND_ORGANIZATION ( #165, #29 ) ;
#157 = DIRECTION ( 'NONE',  ( -1.000000000000000000, 0.000000000000000000, 0.000000000000000000 ) ) ;
#158 = CARTESIAN_POINT ( 'NONE',  ( 12.50000000000000000, 1.530808498934191521E-15, 3.000000000000000000 ) ) ;
#159 = UNCERTAINTY_MEASURE_WITH_UNIT (LENGTH_MEASURE( 1.000000000000000082E-05 ), #28, 'distance_accuracy_value', 'NONE');
#160 = LINE ( 'NONE', #126, #63 ) ;
#161 = CC_DESIGN_PERSON_AND_ORGANIZATION_ASSIGNMENT ( #114, #47, ( #22 ) ) ;
#162 = DATE_AND_TIME ( #50, #69 ) ;
#163 = PRODUCT_DEFINITION_FORMATION_WITH_SPECIFIED_SOURCE ( 'ANY', '', #22, .NOT_KNOWN. ) ;
#164 = CALENDAR_DATE ( 2022, 6, 4 ) ;
#165 = PERSON ( 'UNSPECIFIED', 'UNSPECIFIED', 'UNSPECIFIED', ('UNSPECIFIED'), ('UNSPECIFIED'), ('UNSPECIFIED') ) ;
#166 = FACE_OUTER_BOUND ( 'NONE', #130, .T. ) ;
#167 = CARTESIAN_POINT ( 'NONE',  ( 0.000000000000000000, 0.000000000000000000, 3.000000000000000000 ) ) ;
#168 = LOCAL_TIME ( 11, 3, 27.00000000000000000, #119 ) ;
#169 = DIRECTION ( 'NONE',  ( -0.000000000000000000, -0.000000000000000000, -1.000000000000000000 ) ) ;
#170 = CARTESIAN_POINT ( 'NONE',  ( 0.000000000000000000, 0.000000000000000000, 3.000000000000000000 ) ) ;
#171 = DATE_AND_TIME ( #21, #99 ) ;
#172 = AXIS2_PLACEMENT_3D ( 'NONE', #70, #100, #157 ) ;
#173 = DATE_AND_TIME ( #64, #118 ) ;
#174 = PERSON_AND_ORGANIZATION_ROLE ( 'design_supplier' ) ;
#175 = CC_DESIGN_PERSON_AND_ORGANIZATION_ASSIGNMENT ( #156, #174, ( #163 ) ) ;
ENDSEC;
END-ISO-10303-21;
