ISO-10303-21;
HEADER;
FILE_DESCRIPTION (( 'STEP AP214' ),
    '1' );
FILE_NAME ('21240.step',
    '2022-06-17T16:47:17',
    ( '' ),
    ( '' ),
    'SwSTEP 2.0',
    'SolidWorks 2021',
    '' );
FILE_SCHEMA (( 'AUTOMOTIVE_DESIGN' ));
ENDSEC;

DATA;
#1 = FILL_AREA_STYLE_COLOUR ( '', #82 ) ;
#2 = AXIS2_PLACEMENT_3D ( 'NONE', #96, #38, #41 ) ;
#3 = COLOUR_RGB ( '',0.7921568627450980005, 0.8196078431372548767, 0.9333333333333333481 ) ;
#4 = LINE ( 'NONE', #103, #77 ) ;
#5 = CARTESIAN_POINT ( 'NONE',  ( 0.000000000000000000, 0.000000000000000000, 0.000000000000000000 ) ) ;
#6 = ADVANCED_FACE ( 'NONE', ( #114 ), #24, .T. ) ;
#7 = DIRECTION ( 'NONE',  ( 0.000000000000000000, 0.000000000000000000, 1.000000000000000000 ) ) ;
#8 = CLOSED_SHELL ( 'NONE', ( #40, #6, #15, #36 ) ) ;
#9 =( NAMED_UNIT ( * ) PLANE_ANGLE_UNIT ( ) SI_UNIT ( $, .RADIAN. ) );
#10 = ORIENTED_EDGE ( 'NONE', *, *, #75, .T. ) ;
#11 = ORIENTED_EDGE ( 'NONE', *, *, #75, .F. ) ;
#12 = DIRECTION ( 'NONE',  ( 1.000000000000000000, 0.000000000000000000, 0.000000000000000000 ) ) ;
#13 = ORIENTED_EDGE ( 'NONE', *, *, #119, .T. ) ;
#14 = CARTESIAN_POINT ( 'NONE',  ( 0.000000000000000000, 0.000000000000000000, 0.000000000000000000 ) ) ;
#15 = ADVANCED_FACE ( 'NONE', ( #131 ), #111, .T. ) ;
#16 = DIRECTION ( 'NONE',  ( -1.000000000000000000, 0.000000000000000000, 0.000000000000000000 ) ) ;
#17 = FACE_OUTER_BOUND ( 'NONE', #33, .T. ) ;
#18 =( NAMED_UNIT ( * ) SI_UNIT ( $, .STERADIAN. ) SOLID_ANGLE_UNIT ( ) );
#19 = FACE_OUTER_BOUND ( 'NONE', #69, .T. ) ;
#20 = PRODUCT_DEFINITION_SHAPE ( 'NONE', 'NONE',  #91 ) ;
#21 = ORIENTED_EDGE ( 'NONE', *, *, #119, .F. ) ;
#22 = AXIS2_PLACEMENT_3D ( 'NONE', #101, #79, #120 ) ;
#23 = PRODUCT_RELATED_PRODUCT_CATEGORY ( 'part', '', ( #51 ) ) ;
#24 = CYLINDRICAL_SURFACE ( 'NONE', #118, 100.0000000000000000 ) ;
#25 = PRODUCT_CONTEXT ( 'NONE', #47, 'mechanical' ) ;
#26 = STYLED_ITEM ( 'NONE', ( #50 ), #136 ) ;
#27 = AXIS2_PLACEMENT_3D ( 'NONE', #108, #62, #54 ) ;
#28 = CARTESIAN_POINT ( 'NONE',  ( 100.0000000000000000, 1.224646799147353217E-14, 1.100000000000000089 ) ) ;
#29 = CARTESIAN_POINT ( 'NONE',  ( 100.0000000000000000, 1.224646799147353217E-14, 0.000000000000000000 ) ) ;
#30 = DIRECTION ( 'NONE',  ( 0.000000000000000000, 0.000000000000000000, 1.000000000000000000 ) ) ;
#31 = DIRECTION ( 'NONE',  ( 0.000000000000000000, 0.000000000000000000, 1.000000000000000000 ) ) ;
#32 = SURFACE_STYLE_USAGE ( .BOTH. , #39 ) ;
#33 = EDGE_LOOP ( 'NONE', ( #11, #13, #81, #128 ) ) ;
#34 = ORIENTED_EDGE ( 'NONE', *, *, #117, .F. ) ;
#35 = VERTEX_POINT ( 'NONE', #94 ) ;
#36 = ADVANCED_FACE ( 'NONE', ( #19 ), #76, .F. ) ;
#37 = MECHANICAL_DESIGN_GEOMETRIC_PRESENTATION_REPRESENTATION (  '', ( #122 ), #126 ) ;
#38 = DIRECTION ( 'NONE',  ( 0.000000000000000000, 0.000000000000000000, 1.000000000000000000 ) ) ;
#39 = SURFACE_SIDE_STYLE ('',( #44 ) ) ;
#40 = ADVANCED_FACE ( 'NONE', ( #17 ), #99, .T. ) ;
#41 = DIRECTION ( 'NONE',  ( 1.000000000000000000, 0.000000000000000000, 0.000000000000000000 ) ) ;
#42 = SHAPE_DEFINITION_REPRESENTATION ( #20, #90 ) ;
#43 = VERTEX_POINT ( 'NONE', #98 ) ;
#44 = SURFACE_STYLE_FILL_AREA ( #56 ) ;
#45 = CIRCLE ( 'NONE', #121, 100.0000000000000000 ) ;
#46 = EDGE_CURVE ( 'NONE', #60, #43, #59, .T. ) ;
#47 = APPLICATION_CONTEXT ( 'automotive_design' ) ;
#48 = PRESENTATION_LAYER_ASSIGNMENT (  '', '', ( #122 ) ) ;
#49 = CARTESIAN_POINT ( 'NONE',  ( 0.000000000000000000, 0.000000000000000000, 0.000000000000000000 ) ) ;
#50 = PRESENTATION_STYLE_ASSIGNMENT (( #78 ) ) ;
#51 = PRODUCT ( '21240', '21240', '', ( #25 ) ) ;
#52 = LINE ( 'NONE', #28, #66 ) ;
#53 =( LENGTH_UNIT ( ) NAMED_UNIT ( * ) SI_UNIT ( .MILLI., .METRE. ) );
#54 = DIRECTION ( 'NONE',  ( -1.000000000000000000, 0.000000000000000000, 0.000000000000000000 ) ) ;
#55 = ORIENTED_EDGE ( 'NONE', *, *, #117, .T. ) ;
#56 = FILL_AREA_STYLE ('',( #87 ) ) ;
#57 = DIRECTION ( 'NONE',  ( -0.000000000000000000, -0.000000000000000000, -1.000000000000000000 ) ) ;
#58 = UNCERTAINTY_MEASURE_WITH_UNIT (LENGTH_MEASURE( 1.000000000000000082E-05 ), #115, 'distance_accuracy_value', 'NONE');
#59 = CIRCLE ( 'NONE', #2, 100.0000000000000000 ) ;
#60 = VERTEX_POINT ( 'NONE', #65 ) ;
#61 = EDGE_CURVE ( 'NONE', #60, #35, #4, .T. ) ;
#62 = DIRECTION ( 'NONE',  ( -0.000000000000000000, -0.000000000000000000, -1.000000000000000000 ) ) ;
#63 = CARTESIAN_POINT ( 'NONE',  ( 0.000000000000000000, 0.000000000000000000, 0.000000000000000000 ) ) ;
#64 = APPLICATION_CONTEXT ( 'automotive_design' ) ;
#65 = CARTESIAN_POINT ( 'NONE',  ( -100.0000000000000000, 0.000000000000000000, 1.100000000000000089 ) ) ;
#66 = VECTOR ( 'NONE', #110, 1000.000000000000000 ) ;
#67 = UNCERTAINTY_MEASURE_WITH_UNIT (LENGTH_MEASURE( 1.000000000000000082E-05 ), #53, 'distance_accuracy_value', 'NONE');
#68 = EDGE_LOOP ( 'NONE', ( #104, #10 ) ) ;
#69 = EDGE_LOOP ( 'NONE', ( #34, #70 ) ) ;
#70 = ORIENTED_EDGE ( 'NONE', *, *, #112, .F. ) ;
#71 = AXIS2_PLACEMENT_3D ( 'NONE', #5, #7, #83 ) ;
#72 = AXIS2_PLACEMENT_3D ( 'NONE', #14, #135, #12 ) ;
#73 = AXIS2_PLACEMENT_3D ( 'NONE', #84, #30, #109 ) ;
#74 =( GEOMETRIC_REPRESENTATION_CONTEXT ( 3 ) GLOBAL_UNCERTAINTY_ASSIGNED_CONTEXT ( ( #67 ) ) GLOBAL_UNIT_ASSIGNED_CONTEXT ( ( #53, #127, #116 ) ) REPRESENTATION_CONTEXT ( 'NONE', 'WORKASPACE' ) );
#75 = EDGE_CURVE ( 'NONE', #43, #60, #106, .T. ) ;
#76 = PLANE ( 'NONE',  #137 ) ;
#77 = VECTOR ( 'NONE', #140, 1000.000000000000000 ) ;
#78 = SURFACE_STYLE_USAGE ( .BOTH. , #130 ) ;
#79 = DIRECTION ( 'NONE',  ( 0.000000000000000000, 0.000000000000000000, 1.000000000000000000 ) ) ;
#80 = PRESENTATION_STYLE_ASSIGNMENT (( #32 ) ) ;
#81 = ORIENTED_EDGE ( 'NONE', *, *, #112, .T. ) ;
#82 = COLOUR_RGB ( '',0.7921568627450980005, 0.8196078431372548767, 0.9333333333333333481 ) ;
#83 = DIRECTION ( 'NONE',  ( 1.000000000000000000, 0.000000000000000000, 0.000000000000000000 ) ) ;
#84 = CARTESIAN_POINT ( 'NONE',  ( 0.000000000000000000, 0.000000000000000000, 1.100000000000000089 ) ) ;
#85 = EDGE_LOOP ( 'NONE', ( #21, #86, #97, #55 ) ) ;
#86 = ORIENTED_EDGE ( 'NONE', *, *, #46, .F. ) ;
#87 = FILL_AREA_STYLE_COLOUR ( '', #3 ) ;
#88 = VERTEX_POINT ( 'NONE', #29 ) ;
#89 = CIRCLE ( 'NONE', #71, 100.0000000000000000 ) ;
#90 = ADVANCED_BREP_SHAPE_REPRESENTATION ( '21240', ( #136, #72 ), #74 ) ;
#91 = PRODUCT_DEFINITION ( 'UNKNOWN', '', #138, #113 ) ;
#92 = FILL_AREA_STYLE ('',( #1 ) ) ;
#93 =( GEOMETRIC_REPRESENTATION_CONTEXT ( 3 ) GLOBAL_UNCERTAINTY_ASSIGNED_CONTEXT ( ( #139 ) ) GLOBAL_UNIT_ASSIGNED_CONTEXT ( ( #95, #123, #18 ) ) REPRESENTATION_CONTEXT ( 'NONE', 'WORKASPACE' ) );
#94 = CARTESIAN_POINT ( 'NONE',  ( -100.0000000000000000, 0.000000000000000000, 0.000000000000000000 ) ) ;
#95 =( LENGTH_UNIT ( ) NAMED_UNIT ( * ) SI_UNIT ( .MILLI., .METRE. ) );
#96 = CARTESIAN_POINT ( 'NONE',  ( 0.000000000000000000, 0.000000000000000000, 1.100000000000000089 ) ) ;
#97 = ORIENTED_EDGE ( 'NONE', *, *, #61, .T. ) ;
#98 = CARTESIAN_POINT ( 'NONE',  ( 100.0000000000000000, 1.224646799147353217E-14, 1.100000000000000089 ) ) ;
#99 = CYLINDRICAL_SURFACE ( 'NONE', #27, 100.0000000000000000 ) ;
#100 = PRESENTATION_LAYER_ASSIGNMENT (  '', '', ( #26 ) ) ;
#101 = CARTESIAN_POINT ( 'NONE',  ( 0.000000000000000000, 0.000000000000000000, 1.100000000000000089 ) ) ;
#102 =( NAMED_UNIT ( * ) SI_UNIT ( $, .STERADIAN. ) SOLID_ANGLE_UNIT ( ) );
#103 = CARTESIAN_POINT ( 'NONE',  ( -100.0000000000000000, 0.000000000000000000, 1.100000000000000089 ) ) ;
#104 = ORIENTED_EDGE ( 'NONE', *, *, #46, .T. ) ;
#105 = CARTESIAN_POINT ( 'NONE',  ( 0.000000000000000000, 0.000000000000000000, 1.100000000000000089 ) ) ;
#106 = CIRCLE ( 'NONE', #22, 100.0000000000000000 ) ;
#107 = MECHANICAL_DESIGN_GEOMETRIC_PRESENTATION_REPRESENTATION (  '', ( #26 ), #93 ) ;
#108 = CARTESIAN_POINT ( 'NONE',  ( 0.000000000000000000, 0.000000000000000000, 1.100000000000000089 ) ) ;
#109 = DIRECTION ( 'NONE',  ( 1.000000000000000000, 0.000000000000000000, -0.000000000000000000 ) ) ;
#110 = DIRECTION ( 'NONE',  ( -0.000000000000000000, -0.000000000000000000, -1.000000000000000000 ) ) ;
#111 = PLANE ( 'NONE',  #73 ) ;
#112 = EDGE_CURVE ( 'NONE', #88, #35, #89, .T. ) ;
#113 = PRODUCT_DEFINITION_CONTEXT ( 'detailed design', #64, 'design' ) ;
#114 = FACE_OUTER_BOUND ( 'NONE', #85, .T. ) ;
#115 =( LENGTH_UNIT ( ) NAMED_UNIT ( * ) SI_UNIT ( .MILLI., .METRE. ) );
#116 =( NAMED_UNIT ( * ) SI_UNIT ( $, .STERADIAN. ) SOLID_ANGLE_UNIT ( ) );
#117 = EDGE_CURVE ( 'NONE', #35, #88, #45, .T. ) ;
#118 = AXIS2_PLACEMENT_3D ( 'NONE', #105, #57, #16 ) ;
#119 = EDGE_CURVE ( 'NONE', #43, #88, #52, .T. ) ;
#120 = DIRECTION ( 'NONE',  ( 1.000000000000000000, 0.000000000000000000, 0.000000000000000000 ) ) ;
#121 = AXIS2_PLACEMENT_3D ( 'NONE', #49, #124, #132 ) ;
#122 = STYLED_ITEM ( 'NONE', ( #80 ), #90 ) ;
#123 =( NAMED_UNIT ( * ) PLANE_ANGLE_UNIT ( ) SI_UNIT ( $, .RADIAN. ) );
#124 = DIRECTION ( 'NONE',  ( 0.000000000000000000, 0.000000000000000000, 1.000000000000000000 ) ) ;
#125 = SURFACE_STYLE_FILL_AREA ( #92 ) ;
#126 =( GEOMETRIC_REPRESENTATION_CONTEXT ( 3 ) GLOBAL_UNCERTAINTY_ASSIGNED_CONTEXT ( ( #58 ) ) GLOBAL_UNIT_ASSIGNED_CONTEXT ( ( #115, #9, #102 ) ) REPRESENTATION_CONTEXT ( 'NONE', 'WORKASPACE' ) );
#127 =( NAMED_UNIT ( * ) PLANE_ANGLE_UNIT ( ) SI_UNIT ( $, .RADIAN. ) );
#128 = ORIENTED_EDGE ( 'NONE', *, *, #61, .F. ) ;
#129 = APPLICATION_PROTOCOL_DEFINITION ( 'draft international standard', 'automotive_design', 1998, #47 ) ;
#130 = SURFACE_SIDE_STYLE ('',( #125 ) ) ;
#131 = FACE_OUTER_BOUND ( 'NONE', #68, .T. ) ;
#132 = DIRECTION ( 'NONE',  ( 1.000000000000000000, 0.000000000000000000, 0.000000000000000000 ) ) ;
#133 = DIRECTION ( 'NONE',  ( 1.000000000000000000, 0.000000000000000000, -0.000000000000000000 ) ) ;
#134 = APPLICATION_PROTOCOL_DEFINITION ( 'draft international standard', 'automotive_design', 1998, #64 ) ;
#135 = DIRECTION ( 'NONE',  ( 0.000000000000000000, 0.000000000000000000, 1.000000000000000000 ) ) ;
#136 = MANIFOLD_SOLID_BREP ( 'Boss-Extrude1', #8 ) ;
#137 = AXIS2_PLACEMENT_3D ( 'NONE', #63, #31, #133 ) ;
#138 = PRODUCT_DEFINITION_FORMATION_WITH_SPECIFIED_SOURCE ( 'ANY', '', #51, .NOT_KNOWN. ) ;
#139 = UNCERTAINTY_MEASURE_WITH_UNIT (LENGTH_MEASURE( 1.000000000000000082E-05 ), #95, 'distance_accuracy_value', 'NONE');
#140 = DIRECTION ( 'NONE',  ( -0.000000000000000000, -0.000000000000000000, -1.000000000000000000 ) ) ;
ENDSEC;
END-ISO-10303-21;
