ISO-10303-21;
HEADER;
FILE_DESCRIPTION (( 'STEP AP203' ),
    '1' );
FILE_NAME ('20164-E0W.STEP',
    '2018-06-01T18:06:44',
    ( 'admin' ),
    ( '' ),
    'SwSTEP 2.0',
    'SolidWorks 2016',
    '' );
FILE_SCHEMA (( 'CONFIG_CONTROL_DESIGN' ));
ENDSEC;

DATA;
#1 = LENGTH_MEASURE_WITH_UNIT ( LENGTH_MEASURE( 0.02539999999999999900 ), #78 );
#2 = AXIS2_PLACEMENT_3D ( 'NONE', #220, #179, #304 ) ;
#3 = FACE_OUTER_BOUND ( 'NONE', #124, .T. ) ;
#4 = DIRECTION ( 'NONE',  ( 0.0000000000000000000, -1.000000000000000000, -1.726631975225925000E-016 ) ) ;
#5 = PERSON_AND_ORGANIZATION ( #308, #29 ) ;
#6 = DIRECTION ( 'NONE',  ( 0.0000000000000000000, -1.000000000000000000, -1.878145495644180800E-016 ) ) ;
#7 = APPROVAL ( #272, 'UNSPECIFIED' ) ;
#8 = DIRECTION ( 'NONE',  ( 0.0000000000000000000, -1.000000000000000000, -1.834546473677545500E-016 ) ) ;
#9 = CALENDAR_DATE ( 2018, 1, 6 ) ;
#10 = AXIS2_PLACEMENT_3D ( 'NONE', #127, #59, #222 ) ;
#11 = EDGE_CURVE ( 'NONE', #290, #252, #36, .T. ) ;
#12 = ORIENTED_EDGE ( 'NONE', *, *, #15, .T. ) ;
#13 = LINE ( 'NONE', #206, #154 ) ;
#14 = CARTESIAN_POINT ( 'NONE',  ( 0.0000000000000000000, 0.4944322300693972400, 0.09815953222122211800 ) ) ;
#15 = EDGE_CURVE ( 'NONE', #299, #252, #178, .T. ) ;
#16 = CARTESIAN_POINT ( 'NONE',  ( 0.0000000000000000000, -0.5000000000000000000, 0.09259176229061931400 ) ) ;
#17 = FACE_OUTER_BOUND ( 'NONE', #58, .T. ) ;
#18 = ORIENTED_EDGE ( 'NONE', *, *, #26, .T. ) ;
#19 = EDGE_CURVE ( 'NONE', #314, #130, #173, .T. ) ;
#20 = DIRECTION ( 'NONE',  ( 1.000000000000000000, 0.0000000000000000000, 0.0000000000000000000 ) ) ;
#21 = DATE_AND_TIME ( #9, #41 ) ;
#22 = CARTESIAN_POINT ( 'NONE',  ( 0.0000000000000000000, 1.207213888960530000E-017, -0.007305209598018703100 ) ) ;
#23 = PERSON_AND_ORGANIZATION ( #308, #29 ) ;
#24 = AXIS2_PLACEMENT_3D ( 'NONE', #185, #88, #8 ) ;
#25 = CARTESIAN_POINT ( 'NONE',  ( 0.0000000000000000000, 0.5000000000000000000, 0.09259176229061948100 ) ) ;
#26 = EDGE_CURVE ( 'NONE', #180, #221, #266, .T. ) ;
#27 = PERSON_AND_ORGANIZATION_ROLE ( 'creator' ) ;
#28 = ORIENTED_EDGE ( 'NONE', *, *, #187, .F. ) ;
#29 = ORGANIZATION ( 'UNSPECIFIED', 'UNSPECIFIED', '' ) ;
#30 = DATE_AND_TIME ( #34, #137 ) ;
#31 =( NAMED_UNIT ( * ) SI_UNIT ( $, .STERADIAN. ) SOLID_ANGLE_UNIT ( ) );
#32 = ORIENTED_EDGE ( 'NONE', *, *, #11, .F. ) ;
#33 = ORIENTED_EDGE ( 'NONE', *, *, #182, .F. ) ;
#34 = CALENDAR_DATE ( 2018, 1, 6 ) ;
#35 = ORIENTED_EDGE ( 'NONE', *, *, #37, .T. ) ;
#36 = CIRCLE ( 'NONE', #2, 3.095275590551181700 ) ;
#37 = EDGE_CURVE ( 'NONE', #181, #314, #271, .T. ) ;
#38 = APPROVAL_DATE_TIME ( #144, #95 ) ;
#39 = APPROVAL_ROLE ( '' ) ;
#40 = AXIS2_PLACEMENT_3D ( 'NONE', #208, #150, #256 ) ;
#41 = LOCAL_TIME ( 14, 6, 44.00000000000000000, #329 ) ;
#42 = ORIENTED_EDGE ( 'NONE', *, *, #260, .T. ) ;
#43 = ADVANCED_FACE ( 'NONE', ( #175 ), #72, .T. ) ;
#44 = AXIS2_PLACEMENT_3D ( 'NONE', #153, #155, #250 ) ;
#45 = DIRECTION ( 'NONE',  ( 0.0000000000000000000, 1.836909530733565900E-016, -1.000000000000000000 ) ) ;
#46 = AXIS2_PLACEMENT_3D ( 'NONE', #226, #263, #6 ) ;
#47 = CARTESIAN_POINT ( 'NONE',  ( -6.055048479497752000E-017, -0.4944322300693966800, 0.09815953222122200700 ) ) ;
#48 = DATE_TIME_ROLE ( 'creation_date' ) ;
#49 = FACE_OUTER_BOUND ( 'NONE', #201, .T. ) ;
#50 = AXIS2_PLACEMENT_3D ( 'NONE', #61, #82, #228 ) ;
#51 = SPHERICAL_SURFACE ( 'NONE', #306, 3.095275590551181700 ) ;
#52 = DIRECTION ( 'NONE',  ( -1.000000000000000000, 0.0000000000000000000, 0.0000000000000000000 ) ) ;
#53 = ORIENTED_EDGE ( 'NONE', *, *, #203, .F. ) ;
#54 = CALENDAR_DATE ( 2018, 1, 6 ) ;
#55 = ORIENTED_EDGE ( 'NONE', *, *, #189, .F. ) ;
#56 = APPROVAL_DATE_TIME ( #103, #7 ) ;
#57 = CONICAL_SURFACE ( 'NONE', #320, 0.4944322300693971300, 0.7853981633974590500 ) ;
#58 = EDGE_LOOP ( 'NONE', ( #233, #75, #325 ) ) ;
#59 = DIRECTION ( 'NONE',  ( -0.0000000000000000000, -1.836909530733565900E-016, 1.000000000000000000 ) ) ;
#60 = COORDINATED_UNIVERSAL_TIME_OFFSET ( 5, 0, .BEHIND. ) ;
#61 = CARTESIAN_POINT ( 'NONE',  ( 0.0000000000000000000, 0.0000000000000000000, 0.05841462410976502900 ) ) ;
#62 = DIRECTION ( 'NONE',  ( 0.0000000000000000000, -1.000000000000000000, -1.834546473677545500E-016 ) ) ;
#63 = CLOSED_SHELL ( 'NONE', ( #236, #301, #147, #193, #149, #200, #111, #99, #43, #231 ) ) ;
#64 = CARTESIAN_POINT ( 'NONE',  ( 6.123233995736766000E-017, 0.5000000000000000000, 0.05841462410976511900 ) ) ;
#65 = DIRECTION ( 'NONE',  ( 0.0000000000000000000, 1.000000000000000000, 1.707404996040164500E-016 ) ) ;
#66 = DATE_TIME_ROLE ( 'classification_date' ) ;
#67 = EDGE_CURVE ( 'NONE', #181, #283, #311, .T. ) ;
#68 = CARTESIAN_POINT ( 'NONE',  ( 6.123233995736766000E-017, 0.5000000000000000000, 0.09259176229061948100 ) ) ;
#69 = PERSON_AND_ORGANIZATION ( #308, #29 ) ;
#70 = ORIENTED_EDGE ( 'NONE', *, *, #260, .F. ) ;
#71 = CONICAL_SURFACE ( 'NONE', #10, 0.4944322300693971300, 0.7853981633974590500 ) ;
#72 = CYLINDRICAL_SURFACE ( 'NONE', #46, 0.5000000000000000000 ) ;
#73 = AXIS2_PLACEMENT_3D ( 'NONE', #90, #191, #324 ) ;
#74 = DIRECTION ( 'NONE',  ( 1.000000000000000000, 0.0000000000000000000, 0.0000000000000000000 ) ) ;
#75 = ORIENTED_EDGE ( 'NONE', *, *, #11, .T. ) ;
#76 = CARTESIAN_POINT ( 'NONE',  ( 0.0000000000000000000, -0.5000000000000000000, -0.001737439667416033400 ) ) ;
#77 = EDGE_LOOP ( 'NONE', ( #53, #261, #327, #81 ) ) ;
#78 =( LENGTH_UNIT ( ) NAMED_UNIT ( * ) SI_UNIT ( $, .METRE. ) );
#79 = EDGE_CURVE ( 'NONE', #283, #130, #211, .T. ) ;
#80 = EDGE_CURVE ( 'NONE', #130, #283, #282, .T. ) ;
#81 = ORIENTED_EDGE ( 'NONE', *, *, #37, .F. ) ;
#82 = DIRECTION ( 'NONE',  ( -0.0000000000000000000, -1.836909530733565900E-016, 1.000000000000000000 ) ) ;
#83 = EDGE_CURVE ( 'NONE', #290, #299, #204, .T. ) ;
#84 = DIRECTION ( 'NONE',  ( -0.0000000000000000000, -1.836909530733565900E-016, 1.000000000000000000 ) ) ;
#85 = ORIENTED_EDGE ( 'NONE', *, *, #189, .T. ) ;
#86 = PRODUCT_DEFINITION ( 'UNKNOWN', '', #316, #110 ) ;
#87 = APPROVAL_STATUS ( 'not_yet_approved' ) ;
#88 = DIRECTION ( 'NONE',  ( -0.0000000000000000000, -1.836909530733565900E-016, 1.000000000000000000 ) ) ;
#89 = CIRCLE ( 'NONE', #161, 0.4944322300693971800 ) ;
#90 = CARTESIAN_POINT ( 'NONE',  ( 0.0000000000000000000, 0.0000000000000000000, 1.278887065054646900 ) ) ;
#91 = CARTESIAN_POINT ( 'NONE',  ( 0.0000000000000000000, 1.104938992455970300E-017, -0.001737439667415941700 ) ) ;
#92 = CARTESIAN_POINT ( 'NONE',  ( 0.0000000000000000000, 0.0000000000000000000, 1.278887065054646900 ) ) ;
#93 = CC_DESIGN_PERSON_AND_ORGANIZATION_ASSIGNMENT ( #217, #118, ( #316 ) ) ;
#94 = APPLICATION_PROTOCOL_DEFINITION ( 'international standard', 'config_control_design', 1994, #139 ) ;
#95 = APPROVAL ( #87, 'UNSPECIFIED' ) ;
#96 = DIRECTION ( 'NONE',  ( 0.0000000000000000000, -1.000000000000000000, -1.982541115402065100E-016 ) ) ;
#97 = APPROVAL_PERSON_ORGANIZATION ( #262, #95, #39 ) ;
#98 = CARTESIAN_POINT ( 'NONE',  ( 0.0000000000000000000, 0.0000000000000000000, 1.278887065054646900 ) ) ;
#99 = ADVANCED_FACE ( 'NONE', ( #224 ), #57, .T. ) ;
#100 = CARTESIAN_POINT ( 'NONE',  ( 0.0000000000000000000, -0.4944322300693969600, -0.007305209598018730900 ) ) ;
#101 = APPROVAL_PERSON_ORGANIZATION ( #69, #235, #123 ) ;
#102 = DIRECTION ( 'NONE',  ( -1.000000000000000000, 0.0000000000000000000, 0.0000000000000000000 ) ) ;
#103 = DATE_AND_TIME ( #318, #291 ) ;
#104 = VECTOR ( 'NONE', #309, 39.37007874015748100 ) ;
#105 = CC_DESIGN_PERSON_AND_ORGANIZATION_ASSIGNMENT ( #303, #27, ( #86 ) ) ;
#106 = ORIENTED_EDGE ( 'NONE', *, *, #322, .T. ) ;
#107 = CALENDAR_DATE ( 2018, 1, 6 ) ;
#108 =( CONVERSION_BASED_UNIT ( 'INCH', #1 ) LENGTH_UNIT ( ) NAMED_UNIT ( #297 ) );
#109 = DIRECTION ( 'NONE',  ( 8.659560562355026500E-017, 0.7071067811865550100, 0.7071067811865400200 ) ) ;
#110 = DESIGN_CONTEXT ( 'detailed design', #139, 'design' ) ;
#111 = ADVANCED_FACE ( 'NONE', ( #49 ), #244, .T. ) ;
#112 = EDGE_LOOP ( 'NONE', ( #28, #85, #135, #165 ) ) ;
#113 = LOCAL_TIME ( 14, 6, 44.00000000000000000, #186 ) ;
#114 = EDGE_LOOP ( 'NONE', ( #55, #238, #106, #115 ) ) ;
#115 = ORIENTED_EDGE ( 'NONE', *, *, #79, .T. ) ;
#116 = DIRECTION ( 'NONE',  ( -0.0000000000000000000, -1.836909530733565900E-016, 1.000000000000000000 ) ) ;
#117 = CIRCLE ( 'NONE', #159, 0.5000000000000000000 ) ;
#118 = PERSON_AND_ORGANIZATION_ROLE ( 'design_supplier' ) ;
#119 = ORIENTED_EDGE ( 'NONE', *, *, #26, .F. ) ;
#120 = APPROVAL_STATUS ( 'not_yet_approved' ) ;
#121 = SPHERICAL_SURFACE ( 'NONE', #145, 3.095275590551181700 ) ;
#122 = FACE_OUTER_BOUND ( 'NONE', #132, .T. ) ;
#123 = APPROVAL_ROLE ( '' ) ;
#124 = EDGE_LOOP ( 'NONE', ( #42, #142, #156, #172 ) ) ;
#125 = APPROVAL_DATE_TIME ( #30, #235 ) ;
#126 = AXIS2_PLACEMENT_3D ( 'NONE', #22, #194, #62 ) ;
#127 = CARTESIAN_POINT ( 'NONE',  ( 0.0000000000000000000, 1.207213888960530000E-017, -0.007305209598018703100 ) ) ;
#128 = AXIS2_PLACEMENT_3D ( 'NONE', #91, #129, #167 ) ;
#129 = DIRECTION ( 'NONE',  ( -0.0000000000000000000, -1.836909530733565900E-016, 1.000000000000000000 ) ) ;
#130 = VERTEX_POINT ( 'NONE', #16 ) ;
#131 =( NAMED_UNIT ( * ) PLANE_ANGLE_UNIT ( ) SI_UNIT ( $, .RADIAN. ) );
#132 = EDGE_LOOP ( 'NONE', ( #279, #18, #33 ) ) ;
#133 = CARTESIAN_POINT ( 'NONE',  ( 6.055048479497748300E-017, 0.4944322300693972400, -0.007305209598018640700 ) ) ;
#134 = AXIS2_PLACEMENT_3D ( 'NONE', #241, #84, #268 ) ;
#135 = ORIENTED_EDGE ( 'NONE', *, *, #80, .T. ) ;
#136 = CARTESIAN_POINT ( 'NONE',  ( 0.0000000000000000000, 0.0000000000000000000, 3.153690214660946500 ) ) ;
#137 = LOCAL_TIME ( 14, 6, 44.00000000000000000, #197 ) ;
#138 = AXIS2_PLACEMENT_3D ( 'NONE', #219, #45, #148 ) ;
#139 = APPLICATION_CONTEXT ( 'configuration controlled 3d designs of mechanical parts and assemblies' ) ;
#140 = CC_DESIGN_SECURITY_CLASSIFICATION ( #284, ( #316 ) ) ;
#141 = DIRECTION ( 'NONE',  ( -0.0000000000000000000, -1.836909530733565900E-016, 1.000000000000000000 ) ) ;
#142 = ORIENTED_EDGE ( 'NONE', *, *, #67, .T. ) ;
#143 = DATE_AND_TIME ( #54, #113 ) ;
#144 = DATE_AND_TIME ( #107, #216 ) ;
#145 = AXIS2_PLACEMENT_3D ( 'NONE', #136, #52, #230 ) ;
#146 = DIRECTION ( 'NONE',  ( 0.0000000000000000000, -1.000000000000000000, -1.834546473677545500E-016 ) ) ;
#147 = ADVANCED_FACE ( 'NONE', ( #229 ), #71, .T. ) ;
#148 = DIRECTION ( 'NONE',  ( 0.0000000000000000000, 1.000000000000000000, 1.707404996040164500E-016 ) ) ;
#149 = ADVANCED_FACE ( 'NONE', ( #17 ), #121, .F. ) ;
#150 = DIRECTION ( 'NONE',  ( 0.0000000000000000000, 0.0000000000000000000, 1.000000000000000000 ) ) ;
#151 = CARTESIAN_POINT ( 'NONE',  ( 0.0000000000000000000, 1.104938992455970300E-017, -0.001737439667415941700 ) ) ;
#152 = DIRECTION ( 'NONE',  ( 0.0000000000000000000, -0.7071067811865552300, 0.7071067811865398000 ) ) ;
#153 = CARTESIAN_POINT ( 'NONE',  ( 0.0000000000000000000, -6.278031085760942000E-018, 0.09259176229061939800 ) ) ;
#154 = VECTOR ( 'NONE', #109, 39.37007874015748100 ) ;
#155 = DIRECTION ( 'NONE',  ( -0.0000000000000000000, -1.836909530733565900E-016, 1.000000000000000000 ) ) ;
#156 = ORIENTED_EDGE ( 'NONE', *, *, #80, .F. ) ;
#157 = ORIENTED_EDGE ( 'NONE', *, *, #83, .T. ) ;
#158 = LINE ( 'NONE', #25, #246 ) ;
#159 = AXIS2_PLACEMENT_3D ( 'NONE', #151, #164, #310 ) ;
#160 = PRODUCT ( '20164-E0W', '20164-E0W', '', ( #240 ) ) ;
#161 = AXIS2_PLACEMENT_3D ( 'NONE', #251, #141, #273 ) ;
#162 = ORIENTED_EDGE ( 'NONE', *, *, #203, .T. ) ;
#163 = EDGE_LOOP ( 'NONE', ( #215, #35, #249, #237 ) ) ;
#164 = DIRECTION ( 'NONE',  ( -0.0000000000000000000, -1.836909530733565900E-016, 1.000000000000000000 ) ) ;
#165 = ORIENTED_EDGE ( 'NONE', *, *, #322, .F. ) ;
#166 = ORIENTED_EDGE ( 'NONE', *, *, #182, .T. ) ;
#167 = DIRECTION ( 'NONE',  ( 0.0000000000000000000, -1.000000000000000000, -1.835460370743176800E-016 ) ) ;
#168 = EDGE_LOOP ( 'NONE', ( #166, #162, #70, #177 ) ) ;
#169 = CIRCLE ( 'NONE', #227, 1.377952755905512000 ) ;
#170 = CONICAL_SURFACE ( 'NONE', #294, 0.5000000000000000000, 0.7853981633974606000 ) ;
#171 = APPROVAL_PERSON_ORGANIZATION ( #212, #7, #199 ) ;
#172 = ORIENTED_EDGE ( 'NONE', *, *, #19, .F. ) ;
#173 = LINE ( 'NONE', #287, #104 ) ;
#174 = DIRECTION ( 'NONE',  ( 0.0000000000000000000, 0.7071067811865563400, -0.7071067811865386900 ) ) ;
#175 = FACE_OUTER_BOUND ( 'NONE', #163, .T. ) ;
#176 = SHAPE_DEFINITION_REPRESENTATION ( #300, #210 ) ;
#177 = ORIENTED_EDGE ( 'NONE', *, *, #196, .F. ) ;
#178 = CIRCLE ( 'NONE', #305, 0.4944322300693971800 ) ;
#179 = DIRECTION ( 'NONE',  ( -1.000000000000000000, 1.224646799147353200E-016, 2.249565377136128000E-032 ) ) ;
#180 = VERTEX_POINT ( 'NONE', #302 ) ;
#181 = VERTEX_POINT ( 'NONE', #315 ) ;
#182 = EDGE_CURVE ( 'NONE', #298, #221, #264, .T. ) ;
#183 = CC_DESIGN_APPROVAL ( #7, ( #284 ) ) ;
#184 = PERSON_AND_ORGANIZATION_ROLE ( 'design_owner' ) ;
#185 = CARTESIAN_POINT ( 'NONE',  ( 0.0000000000000000000, 1.207213888960530000E-017, -0.007305209598018703100 ) ) ;
#186 = COORDINATED_UNIVERSAL_TIME_OFFSET ( 5, 0, .BEHIND. ) ;
#187 = EDGE_CURVE ( 'NONE', #252, #299, #89, .T. ) ;
#188 = PERSON_AND_ORGANIZATION_ROLE ( 'creator' ) ;
#189 = EDGE_CURVE ( 'NONE', #252, #130, #234, .T. ) ;
#190 = PRODUCT_RELATED_PRODUCT_CATEGORY ( 'detail', '', ( #160 ) ) ;
#191 = DIRECTION ( 'NONE',  ( 1.000000000000000000, -1.224646799147353200E-016, -2.249565377136128000E-032 ) ) ;
#192 =( GEOMETRIC_REPRESENTATION_CONTEXT ( 3 ) GLOBAL_UNCERTAINTY_ASSIGNED_CONTEXT ( ( #307 ) ) GLOBAL_UNIT_ASSIGNED_CONTEXT ( ( #108, #131, #31 ) ) REPRESENTATION_CONTEXT ( 'NONE', 'WORKASPACE' ) );
#193 = ADVANCED_FACE ( 'NONE', ( #122 ), #243, .T. ) ;
#194 = DIRECTION ( 'NONE',  ( -0.0000000000000000000, -1.836909530733565900E-016, 1.000000000000000000 ) ) ;
#195 = EDGE_CURVE ( 'NONE', #180, #298, #169, .T. ) ;
#196 = EDGE_CURVE ( 'NONE', #298, #314, #293, .T. ) ;
#197 = COORDINATED_UNIVERSAL_TIME_OFFSET ( 5, 0, .BEHIND. ) ;
#198 = PERSON_AND_ORGANIZATION_ROLE ( 'classification_officer' ) ;
#199 = APPROVAL_ROLE ( '' ) ;
#200 = ADVANCED_FACE ( 'NONE', ( #281 ), #51, .F. ) ;
#201 = EDGE_LOOP ( 'NONE', ( #119, #255, #257 ) ) ;
#202 = DIRECTION ( 'NONE',  ( 1.000000000000000000, 0.0000000000000000000, 0.0000000000000000000 ) ) ;
#203 = EDGE_CURVE ( 'NONE', #221, #181, #13, .T. ) ;
#204 = CIRCLE ( 'NONE', #276, 3.095275590551181700 ) ;
#205 = VECTOR ( 'NONE', #275, 39.37007874015748100 ) ;
#206 = CARTESIAN_POINT ( 'NONE',  ( 6.055048479497748300E-017, 0.4944322300693971300, -0.007305209598018612100 ) ) ;
#207 = CC_DESIGN_DATE_AND_TIME_ASSIGNMENT ( #21, #66, ( #284 ) ) ;
#208 = CARTESIAN_POINT ( 'NONE',  ( 0.0000000000000000000, 0.0000000000000000000, 0.0000000000000000000 ) ) ;
#209 = CC_DESIGN_PERSON_AND_ORGANIZATION_ASSIGNMENT ( #23, #188, ( #316 ) ) ;
#210 = ADVANCED_BREP_SHAPE_REPRESENTATION ( '20164-E0W', ( #253, #40 ), #192 ) ;
#211 = CIRCLE ( 'NONE', #134, 0.5000000000000000000 ) ;
#212 = PERSON_AND_ORGANIZATION ( #308, #29 ) ;
#213 = CONICAL_SURFACE ( 'NONE', #138, 0.5000000000000000000, 0.7853981633974606000 ) ;
#214 = EDGE_CURVE ( 'NONE', #221, #298, #242, .T. ) ;
#215 = ORIENTED_EDGE ( 'NONE', *, *, #67, .F. ) ;
#216 = LOCAL_TIME ( 14, 6, 44.00000000000000000, #60 ) ;
#217 = PERSON_AND_ORGANIZATION ( #308, #29 ) ;
#218 = EDGE_LOOP ( 'NONE', ( #32, #157, #12 ) ) ;
#219 = CARTESIAN_POINT ( 'NONE',  ( 0.0000000000000000000, -6.278031085760942000E-018, 0.09259176229061939800 ) ) ;
#220 = CARTESIAN_POINT ( 'NONE',  ( 0.0000000000000000000, 0.0000000000000000000, 3.153690214660946500 ) ) ;
#221 = VERTEX_POINT ( 'NONE', #133 ) ;
#222 = DIRECTION ( 'NONE',  ( 0.0000000000000000000, -1.000000000000000000, -1.834546473677545500E-016 ) ) ;
#223 = COORDINATED_UNIVERSAL_TIME_OFFSET ( 5, 0, .BEHIND. ) ;
#224 = FACE_OUTER_BOUND ( 'NONE', #77, .T. ) ;
#225 = FACE_OUTER_BOUND ( 'NONE', #114, .T. ) ;
#226 = CARTESIAN_POINT ( 'NONE',  ( 0.0000000000000000000, 0.0000000000000000000, 0.05841462410976502900 ) ) ;
#227 = AXIS2_PLACEMENT_3D ( 'NONE', #98, #317, #267 ) ;
#228 = DIRECTION ( 'NONE',  ( 0.0000000000000000000, -1.000000000000000000, -1.878145495644180800E-016 ) ) ;
#229 = FACE_OUTER_BOUND ( 'NONE', #168, .T. ) ;
#230 = DIRECTION ( 'NONE',  ( 0.0000000000000000000, 1.000000000000000000, 1.765172705140480300E-016 ) ) ;
#231 = ADVANCED_FACE ( 'NONE', ( #225 ), #170, .T. ) ;
#232 = AXIS2_PLACEMENT_3D ( 'NONE', #278, #202, #328 ) ;
#233 = ORIENTED_EDGE ( 'NONE', *, *, #83, .F. ) ;
#234 = LINE ( 'NONE', #254, #205 ) ;
#235 = APPROVAL ( #120, 'UNSPECIFIED' ) ;
#236 = ADVANCED_FACE ( 'NONE', ( #296 ), #213, .T. ) ;
#237 = ORIENTED_EDGE ( 'NONE', *, *, #79, .F. ) ;
#238 = ORIENTED_EDGE ( 'NONE', *, *, #15, .F. ) ;
#239 = DIRECTION ( 'NONE',  ( 0.0000000000000000000, 1.836909530733565900E-016, -1.000000000000000000 ) ) ;
#240 = MECHANICAL_CONTEXT ( 'NONE', #270, 'mechanical' ) ;
#241 = CARTESIAN_POINT ( 'NONE',  ( 0.0000000000000000000, -6.278031085760942000E-018, 0.09259176229061939800 ) ) ;
#242 = CIRCLE ( 'NONE', #126, 0.4944322300693971300 ) ;
#243 = SPHERICAL_SURFACE ( 'NONE', #292, 1.377952755905512000 ) ;
#244 = SPHERICAL_SURFACE ( 'NONE', #232, 1.377952755905512000 ) ;
#245 = DIRECTION ( 'NONE',  ( 0.0000000000000000000, 0.0000000000000000000, -1.000000000000000000 ) ) ;
#246 = VECTOR ( 'NONE', #174, 39.37007874015748100 ) ;
#247 = DIRECTION ( 'NONE',  ( 0.0000000000000000000, 1.000000000000000000, 1.765172705140480300E-016 ) ) ;
#248 = SECURITY_CLASSIFICATION_LEVEL ( 'unclassified' ) ;
#249 = ORIENTED_EDGE ( 'NONE', *, *, #19, .T. ) ;
#250 = DIRECTION ( 'NONE',  ( 0.0000000000000000000, -1.000000000000000000, -1.707404996040164500E-016 ) ) ;
#251 = CARTESIAN_POINT ( 'NONE',  ( 0.0000000000000000000, -7.300780050806526000E-018, 0.09815953222122207600 ) ) ;
#252 = VERTEX_POINT ( 'NONE', #47 ) ;
#253 = MANIFOLD_SOLID_BREP ( '20164-001-1-solid1', #63 ) ;
#254 = CARTESIAN_POINT ( 'NONE',  ( 6.123233995736766000E-017, -0.5000000000000000000, 0.09259176229061931400 ) ) ;
#255 = ORIENTED_EDGE ( 'NONE', *, *, #195, .T. ) ;
#256 = DIRECTION ( 'NONE',  ( 1.000000000000000000, 0.0000000000000000000, 0.0000000000000000000 ) ) ;
#257 = ORIENTED_EDGE ( 'NONE', *, *, #214, .F. ) ;
#258 = CC_DESIGN_PERSON_AND_ORGANIZATION_ASSIGNMENT ( #288, #184, ( #160 ) ) ;
#259 = DIRECTION ( 'NONE',  ( -0.0000000000000000000, -1.836909530733565900E-016, 1.000000000000000000 ) ) ;
#260 = EDGE_CURVE ( 'NONE', #314, #181, #117, .T. ) ;
#261 = ORIENTED_EDGE ( 'NONE', *, *, #214, .T. ) ;
#262 = PERSON_AND_ORGANIZATION ( #308, #29 ) ;
#263 = DIRECTION ( 'NONE',  ( -0.0000000000000000000, -1.836909530733565900E-016, 1.000000000000000000 ) ) ;
#264 = CIRCLE ( 'NONE', #24, 0.4944322300693971300 ) ;
#265 = CARTESIAN_POINT ( 'NONE',  ( 0.0000000000000000000, -7.300780050806526000E-018, 0.09815953222122207600 ) ) ;
#266 = CIRCLE ( 'NONE', #73, 1.377952755905512000 ) ;
#267 = DIRECTION ( 'NONE',  ( 0.0000000000000000000, 0.0000000000000000000, 1.000000000000000000 ) ) ;
#268 = DIRECTION ( 'NONE',  ( 0.0000000000000000000, -1.000000000000000000, -1.707404996040164500E-016 ) ) ;
#269 = CC_DESIGN_APPROVAL ( #95, ( #316 ) ) ;
#270 = APPLICATION_CONTEXT ( 'configuration controlled 3d designs of mechanical parts and assemblies' ) ;
#271 = CIRCLE ( 'NONE', #128, 0.5000000000000000000 ) ;
#272 = APPROVAL_STATUS ( 'not_yet_approved' ) ;
#273 = DIRECTION ( 'NONE',  ( 0.0000000000000000000, -1.000000000000000000, -1.726631975225925000E-016 ) ) ;
#274 = CC_DESIGN_APPROVAL ( #235, ( #86 ) ) ;
#275 = DIRECTION ( 'NONE',  ( 8.659560562355040100E-017, -0.7071067811865561200, -0.7071067811865389100 ) ) ;
#276 = AXIS2_PLACEMENT_3D ( 'NONE', #321, #74, #245 ) ;
#277 = CARTESIAN_POINT ( 'NONE',  ( 0.0000000000000000000, 0.0000000000000000000, 3.153690214660946500 ) ) ;
#278 = CARTESIAN_POINT ( 'NONE',  ( 0.0000000000000000000, 0.0000000000000000000, 1.278887065054646900 ) ) ;
#279 = ORIENTED_EDGE ( 'NONE', *, *, #195, .F. ) ;
#280 = DIRECTION ( 'NONE',  ( -0.0000000000000000000, -1.836909530733566100E-016, 1.000000000000000000 ) ) ;
#281 = FACE_OUTER_BOUND ( 'NONE', #218, .T. ) ;
#282 = CIRCLE ( 'NONE', #44, 0.5000000000000000000 ) ;
#283 = VERTEX_POINT ( 'NONE', #68 ) ;
#284 = SECURITY_CLASSIFICATION ( '', '', #248 ) ;
#285 = CARTESIAN_POINT ( 'NONE',  ( 0.0000000000000000000, -6.278031085760942000E-018, 0.09259176229061939800 ) ) ;
#286 = VECTOR ( 'NONE', #152, 39.37007874015748100 ) ;
#287 = CARTESIAN_POINT ( 'NONE',  ( 0.0000000000000000000, -0.5000000000000000000, 0.05841462410976493200 ) ) ;
#288 = PERSON_AND_ORGANIZATION ( #308, #29 ) ;
#289 = CARTESIAN_POINT ( 'NONE',  ( 0.0000000000000000000, 1.207213888960530000E-017, -0.007305209598018703100 ) ) ;
#290 = VERTEX_POINT ( 'NONE', #319 ) ;
#291 = LOCAL_TIME ( 14, 6, 44.00000000000000000, #223 ) ;
#292 = AXIS2_PLACEMENT_3D ( 'NONE', #92, #20, #96 ) ;
#293 = LINE ( 'NONE', #313, #286 ) ;
#294 = AXIS2_PLACEMENT_3D ( 'NONE', #285, #239, #65 ) ;
#295 = VECTOR ( 'NONE', #280, 39.37007874015748100 ) ;
#296 = FACE_OUTER_BOUND ( 'NONE', #112, .T. ) ;
#297 = DIMENSIONAL_EXPONENTS ( 1.000000000000000000, 0.0000000000000000000, 0.0000000000000000000, 0.0000000000000000000, 0.0000000000000000000, 0.0000000000000000000, 0.0000000000000000000 ) ;
#298 = VERTEX_POINT ( 'NONE', #100 ) ;
#299 = VERTEX_POINT ( 'NONE', #14 ) ;
#300 = PRODUCT_DEFINITION_SHAPE ( 'NONE', 'NONE',  #86 ) ;
#301 = ADVANCED_FACE ( 'NONE', ( #3 ), #330, .T. ) ;
#302 = CARTESIAN_POINT ( 'NONE',  ( 0.0000000000000000000, 1.687421834275437900E-016, -0.09906569085086502900 ) ) ;
#303 = PERSON_AND_ORGANIZATION ( #308, #29 ) ;
#304 = DIRECTION ( 'NONE',  ( -1.224646799147353200E-016, -1.000000000000000000, 0.0000000000000000000 ) ) ;
#305 = AXIS2_PLACEMENT_3D ( 'NONE', #265, #259, #4 ) ;
#306 = AXIS2_PLACEMENT_3D ( 'NONE', #277, #102, #247 ) ;
#307 = UNCERTAINTY_MEASURE_WITH_UNIT (LENGTH_MEASURE( 1.000000000000000100E-005 ), #108, 'distance_accuracy_value', 'NONE');
#308 = PERSON ( 'UNSPECIFIED', 'UNSPECIFIED', 'UNSPECIFIED', ('UNSPECIFIED'), ('UNSPECIFIED'), ('UNSPECIFIED') ) ;
#309 = DIRECTION ( 'NONE',  ( -0.0000000000000000000, -1.836909530733566100E-016, 1.000000000000000000 ) ) ;
#310 = DIRECTION ( 'NONE',  ( 0.0000000000000000000, -1.000000000000000000, -1.835460370743176800E-016 ) ) ;
#311 = LINE ( 'NONE', #64, #295 ) ;
#312 = APPLICATION_PROTOCOL_DEFINITION ( 'international standard', 'config_control_design', 1994, #270 ) ;
#313 = CARTESIAN_POINT ( 'NONE',  ( 0.0000000000000000000, -0.4944322300693971300, -0.007305209598018793300 ) ) ;
#314 = VERTEX_POINT ( 'NONE', #76 ) ;
#315 = CARTESIAN_POINT ( 'NONE',  ( 6.123233995736766000E-017, 0.5000000000000000000, -0.001737439667415849700 ) ) ;
#316 = PRODUCT_DEFINITION_FORMATION_WITH_SPECIFIED_SOURCE ( 'ANY', '', #160, .NOT_KNOWN. ) ;
#317 = DIRECTION ( 'NONE',  ( -1.000000000000000000, 0.0000000000000000000, -0.0000000000000000000 ) ) ;
#318 = CALENDAR_DATE ( 2018, 1, 6 ) ;
#319 = CARTESIAN_POINT ( 'NONE',  ( 0.0000000000000000000, 7.581050904754151100E-016, 0.05841462410976503600 ) ) ;
#320 = AXIS2_PLACEMENT_3D ( 'NONE', #289, #116, #146 ) ;
#321 = CARTESIAN_POINT ( 'NONE',  ( 0.0000000000000000000, 0.0000000000000000000, 3.153690214660946500 ) ) ;
#322 = EDGE_CURVE ( 'NONE', #299, #283, #158, .T. ) ;
#323 = CC_DESIGN_PERSON_AND_ORGANIZATION_ASSIGNMENT ( #5, #198, ( #284 ) ) ;
#324 = DIRECTION ( 'NONE',  ( 1.224646799147353200E-016, 1.000000000000000000, 0.0000000000000000000 ) ) ;
#325 = ORIENTED_EDGE ( 'NONE', *, *, #187, .T. ) ;
#326 = CC_DESIGN_DATE_AND_TIME_ASSIGNMENT ( #143, #48, ( #86 ) ) ;
#327 = ORIENTED_EDGE ( 'NONE', *, *, #196, .T. ) ;
#328 = DIRECTION ( 'NONE',  ( 0.0000000000000000000, -1.000000000000000000, -1.982541115402065100E-016 ) ) ;
#329 = COORDINATED_UNIVERSAL_TIME_OFFSET ( 5, 0, .BEHIND. ) ;
#330 = CYLINDRICAL_SURFACE ( 'NONE', #50, 0.5000000000000000000 ) ;
ENDSEC;
END-ISO-10303-21;
