ISO-10303-21;
HEADER;
FILE_DESCRIPTION (( 'STEP AP203' ),
    '1' );
FILE_NAME ('step_48999.step',
    '2014-06-05T18:40:02',
    ( '' ),
    ( '' ),
    'SwSTEP 2.0',
    'SolidWorks 2014',
    '' );
FILE_SCHEMA (( 'CONFIG_CONTROL_DESIGN' ));
ENDSEC;

DATA;
#1 = APPROVAL ( #30, 'UNSPECIFIED' ) ;
#2 = PERSON_AND_ORGANIZATION_ROLE ( 'classification_officer' ) ;
#3 = ORIENTED_EDGE ( 'NONE', *, *, #247, .T. ) ;
#4 = CARTESIAN_POINT ( 'NONE',  ( 0.0000000000000000000, 10.00000000000000200, 10.00000000000000000 ) ) ;
#5 = EDGE_CURVE ( 'NONE', #314, #15, #138, .T. ) ;
#6 = ORIENTED_EDGE ( 'NONE', *, *, #293, .T. ) ;
#7 = FACE_OUTER_BOUND ( 'NONE', #65, .T. ) ;
#8 = APPLICATION_PROTOCOL_DEFINITION ( 'international standard', 'config_control_design', 1994, #90 ) ;
#9 = EDGE_CURVE ( 'NONE', #244, #15, #269, .T. ) ;
#10 = ORIENTED_EDGE ( 'NONE', *, *, #288, .F. ) ;
#11 = FACE_OUTER_BOUND ( 'NONE', #40, .T. ) ;
#12 = ADVANCED_FACE ( 'NONE', ( #144 ), #82, .F. ) ;
#13 = PERSON_AND_ORGANIZATION_ROLE ( 'design_owner' ) ;
#14 = CC_DESIGN_DATE_AND_TIME_ASSIGNMENT ( #164, #126, ( #22 ) ) ;
#15 = VERTEX_POINT ( 'NONE', #72 ) ;
#16 = VECTOR ( 'NONE', #182, 1000.000000000000000 ) ;
#17 = FACE_OUTER_BOUND ( 'NONE', #92, .T. ) ;
#18 = CC_DESIGN_PERSON_AND_ORGANIZATION_ASSIGNMENT ( #176, #2, ( #22 ) ) ;
#19 = EDGE_CURVE ( 'NONE', #24, #253, #213, .T. ) ;
#20 = CARTESIAN_POINT ( 'NONE',  ( 10.00000000000000200, 10.00000000000000200, 10.00000000000000000 ) ) ;
#21 = CARTESIAN_POINT ( 'NONE',  ( 10.00000000000000200, -5.306039724263175300E-015, 10.00000000000000000 ) ) ;
#22 = SECURITY_CLASSIFICATION ( '', '', #59 ) ;
#23 = DIRECTION ( 'NONE',  ( -0.0000000000000000000, -0.0000000000000000000, -1.000000000000000000 ) ) ;
#24 = VERTEX_POINT ( 'NONE', #99 ) ;
#25 = ORIENTED_EDGE ( 'NONE', *, *, #304, .F. ) ;
#26 = LINE ( 'NONE', #190, #305 ) ;
#27 = VECTOR ( 'NONE', #23, 1000.000000000000000 ) ;
#28 = CC_DESIGN_PERSON_AND_ORGANIZATION_ASSIGNMENT ( #178, #237, ( #47 ) ) ;
#29 = PLANE ( 'NONE',  #108 ) ;
#30 = APPROVAL_STATUS ( 'not_yet_approved' ) ;
#31 = VECTOR ( 'NONE', #145, 1000.000000000000000 ) ;
#32 = ORIENTED_EDGE ( 'NONE', *, *, #5, .T. ) ;
#33 = CC_DESIGN_PERSON_AND_ORGANIZATION_ASSIGNMENT ( #181, #63, ( #47 ) ) ;
#34 = LINE ( 'NONE', #260, #124 ) ;
#35 = PLANE ( 'NONE',  #140 ) ;
#36 = EDGE_CURVE ( 'NONE', #15, #252, #179, .T. ) ;
#37 = VECTOR ( 'NONE', #64, 1000.000000000000000 ) ;
#38 = LINE ( 'NONE', #297, #16 ) ;
#39 = CC_DESIGN_APPROVAL ( #42, ( #47 ) ) ;
#40 = EDGE_LOOP ( 'NONE', ( #80, #41, #274, #128 ) ) ;
#41 = ORIENTED_EDGE ( 'NONE', *, *, #293, .F. ) ;
#42 = APPROVAL ( #83, 'UNSPECIFIED' ) ;
#43 = CARTESIAN_POINT ( 'NONE',  ( 10.00000000000000200, 10.00000000000000200, 10.00000000000000000 ) ) ;
#44 = ORIENTED_EDGE ( 'NONE', *, *, #9, .F. ) ;
#45 = ORIENTED_EDGE ( 'NONE', *, *, #207, .T. ) ;
#46 = VECTOR ( 'NONE', #76, 1000.000000000000000 ) ;
#47 = PRODUCT_DEFINITION_FORMATION_WITH_SPECIFIED_SOURCE ( 'ANY', '', #294, .NOT_KNOWN. ) ;
#48 = MANIFOLD_SOLID_BREP ( 'Boss-Extrude1', #197 ) ;
#49 = ADVANCED_FACE ( 'NONE', ( #11 ), #106, .F. ) ;
#50 = CC_DESIGN_DATE_AND_TIME_ASSIGNMENT ( #209, #312, ( #77 ) ) ;
#51 = EDGE_LOOP ( 'NONE', ( #110, #170, #317 ) ) ;
#52 = ORIENTED_EDGE ( 'NONE', *, *, #287, .F. ) ;
#53 = DIRECTION ( 'NONE',  ( 1.000000000000000000, -5.306039724263174900E-016, -0.0000000000000000000 ) ) ;
#54 = CARTESIAN_POINT ( 'NONE',  ( 0.0000000000000000000, 0.0000000000000000000, 10.00000000000000000 ) ) ;
#55 = CC_DESIGN_PERSON_AND_ORGANIZATION_ASSIGNMENT ( #227, #212, ( #77 ) ) ;
#56 = EDGE_LOOP ( 'NONE', ( #180, #10, #265 ) ) ;
#57 = CARTESIAN_POINT ( 'NONE',  ( 10.00000000000000200, -5.306039724263175300E-015, 10.00000000000000000 ) ) ;
#58 = CARTESIAN_POINT ( 'NONE',  ( 0.0000000000000000000, 10.00000000000000200, 10.00000000000000000 ) ) ;
#59 = SECURITY_CLASSIFICATION_LEVEL ( 'unclassified' ) ;
#60 = LINE ( 'NONE', #319, #141 ) ;
#61 = FACE_OUTER_BOUND ( 'NONE', #100, .T. ) ;
#62 = CARTESIAN_POINT ( 'NONE',  ( 10.00000000000000200, 10.00000000000000200, 0.0000000000000000000 ) ) ;
#63 = PERSON_AND_ORGANIZATION_ROLE ( 'creator' ) ;
#64 = DIRECTION ( 'NONE',  ( -0.0000000000000000000, -0.0000000000000000000, -1.000000000000000000 ) ) ;
#65 = EDGE_LOOP ( 'NONE', ( #74, #52, #295, #258 ) ) ;
#66 = VECTOR ( 'NONE', #196, 1000.000000000000000 ) ;
#67 = CC_DESIGN_APPROVAL ( #71, ( #77 ) ) ;
#68 = DIRECTION ( 'NONE',  ( -0.7071067811865474600, -0.7071067811865474600, -0.0000000000000000000 ) ) ;
#69 = DIRECTION ( 'NONE',  ( -0.0000000000000000000, -0.0000000000000000000, -1.000000000000000000 ) ) ;
#70 = LINE ( 'NONE', #210, #169 ) ;
#71 = APPROVAL ( #104, 'UNSPECIFIED' ) ;
#72 = CARTESIAN_POINT ( 'NONE',  ( 10.00000000000000200, -5.306039724263175300E-015, 0.0000000000000000000 ) ) ;
#73 = ADVANCED_FACE ( 'NONE', ( #148 ), #114, .F. ) ;
#74 = ORIENTED_EDGE ( 'NONE', *, *, #36, .T. ) ;
#75 = ORIENTED_EDGE ( 'NONE', *, *, #187, .F. ) ;
#76 = DIRECTION ( 'NONE',  ( 1.000000000000000000, -5.306039724263174900E-016, -0.0000000000000000000 ) ) ;
#77 = PRODUCT_DEFINITION ( 'UNKNOWN', '', #47, #195 ) ;
#78 = EDGE_LOOP ( 'NONE', ( #88, #143, #225 ) ) ;
#79 = CARTESIAN_POINT ( 'NONE',  ( 10.00000000000000200, -5.306039724263175300E-015, 0.0000000000000000000 ) ) ;
#80 = ORIENTED_EDGE ( 'NONE', *, *, #283, .T. ) ;
#81 = CC_DESIGN_PERSON_AND_ORGANIZATION_ASSIGNMENT ( #267, #13, ( #294 ) ) ;
#82 = PLANE ( 'NONE',  #243 ) ;
#83 = APPROVAL_STATUS ( 'not_yet_approved' ) ;
#84 = ORIENTED_EDGE ( 'NONE', *, *, #315, .F. ) ;
#85 = DIRECTION ( 'NONE',  ( 0.0000000000000000000, -1.000000000000000000, 0.0000000000000000000 ) ) ;
#86 = AXIS2_PLACEMENT_3D ( 'NONE', #270, #309, #112 ) ;
#87 = DIRECTION ( 'NONE',  ( 0.0000000000000000000, -0.0000000000000000000, -1.000000000000000000 ) ) ;
#88 = ORIENTED_EDGE ( 'NONE', *, *, #315, .T. ) ;
#89 = CARTESIAN_POINT ( 'NONE',  ( 0.0000000000000000000, 0.0000000000000000000, 10.00000000000000000 ) ) ;
#90 = APPLICATION_CONTEXT ( 'configuration controlled 3d designs of mechanical parts and assemblies' ) ;
#91 = VECTOR ( 'NONE', #306, 1000.000000000000100 ) ;
#92 = EDGE_LOOP ( 'NONE', ( #32, #44, #84, #302 ) ) ;
#93 = ADVANCED_FACE ( 'NONE', ( #282 ), #211, .F. ) ;
#94 = CARTESIAN_POINT ( 'NONE',  ( 0.0000000000000000000, 0.0000000000000000000, 0.0000000000000000000 ) ) ;
#95 = FACE_OUTER_BOUND ( 'NONE', #51, .T. ) ;
#96 = UNCERTAINTY_MEASURE_WITH_UNIT (LENGTH_MEASURE( 1.000000000000000100E-005 ), #173, 'distance_accuracy_value', 'NONE');
#97 = PRODUCT_DEFINITION_SHAPE ( 'NONE', 'NONE',  #77 ) ;
#98 = CARTESIAN_POINT ( 'NONE',  ( 0.0000000000000000000, 0.0000000000000000000, 10.00000000000000000 ) ) ;
#99 = CARTESIAN_POINT ( 'NONE',  ( 0.0000000000000000000, 10.00000000000000200, 10.00000000000000000 ) ) ;
#100 = EDGE_LOOP ( 'NONE', ( #3, #137, #203 ) ) ;
#101 = VECTOR ( 'NONE', #68, 1000.000000000000100 ) ;
#102 = DIRECTION ( 'NONE',  ( -0.0000000000000000000, -1.000000000000000000, -0.0000000000000000000 ) ) ;
#103 = CARTESIAN_POINT ( 'NONE',  ( 10.00000000000000200, 10.00000000000000200, 10.00000000000000000 ) ) ;
#104 = APPROVAL_STATUS ( 'not_yet_approved' ) ;
#105 = CARTESIAN_POINT ( 'NONE',  ( 10.00000000000000200, 10.00000000000000200, 0.0000000000000000000 ) ) ;
#106 = PLANE ( 'NONE',  #224 ) ;
#107 = CARTESIAN_POINT ( 'NONE',  ( 0.0000000000000000000, 10.00000000000000200, 0.0000000000000000000 ) ) ;
#108 = AXIS2_PLACEMENT_3D ( 'NONE', #261, #308, #155 ) ;
#109 = DIRECTION ( 'NONE',  ( -0.0000000000000000000, 1.000000000000000000, -0.0000000000000000000 ) ) ;
#110 = ORIENTED_EDGE ( 'NONE', *, *, #5, .F. ) ;
#111 = VECTOR ( 'NONE', #102, 1000.000000000000000 ) ;
#112 = DIRECTION ( 'NONE',  ( 1.000000000000000000, 0.0000000000000000000, 0.0000000000000000000 ) ) ;
#113 =( GEOMETRIC_REPRESENTATION_CONTEXT ( 3 ) GLOBAL_UNCERTAINTY_ASSIGNED_CONTEXT ( ( #96 ) ) GLOBAL_UNIT_ASSIGNED_CONTEXT ( ( #173, #246, #239 ) ) REPRESENTATION_CONTEXT ( 'NONE', 'WORKASPACE' ) );
#114 = PLANE ( 'NONE',  #202 ) ;
#115 = DIRECTION ( 'NONE',  ( -0.7071067811865475700, 0.7071067811865475700, 0.0000000000000000000 ) ) ;
#116 = DIRECTION ( 'NONE',  ( 0.7071067811865474600, 0.7071067811865474600, 0.0000000000000000000 ) ) ;
#117 = ORIENTED_EDGE ( 'NONE', *, *, #229, .F. ) ;
#118 = CARTESIAN_POINT ( 'NONE',  ( 0.0000000000000000000, 0.0000000000000000000, 10.00000000000000000 ) ) ;
#119 = APPROVAL_ROLE ( '' ) ;
#120 = VECTOR ( 'NONE', #109, 1000.000000000000000 ) ;
#121 = DIRECTION ( 'NONE',  ( -0.7071067811865474600, -0.7071067811865474600, 0.0000000000000000000 ) ) ;
#122 = AXIS2_PLACEMENT_3D ( 'NONE', #98, #168, #291 ) ;
#123 = DIRECTION ( 'NONE',  ( 0.0000000000000000000, 0.0000000000000000000, 1.000000000000000000 ) ) ;
#124 = VECTOR ( 'NONE', #254, 1000.000000000000100 ) ;
#125 = LINE ( 'NONE', #296, #130 ) ;
#126 = DATE_TIME_ROLE ( 'classification_date' ) ;
#127 = DIRECTION ( 'NONE',  ( 0.7071067811865475700, -0.7071067811865475700, 0.0000000000000000000 ) ) ;
#128 = ORIENTED_EDGE ( 'NONE', *, *, #187, .T. ) ;
#129 = DIRECTION ( 'NONE',  ( 1.000000000000000000, 0.0000000000000000000, 0.0000000000000000000 ) ) ;
#130 = VECTOR ( 'NONE', #316, 1000.000000000000000 ) ;
#131 = DIRECTION ( 'NONE',  ( 0.0000000000000000000, 0.0000000000000000000, -1.000000000000000000 ) ) ;
#132 = AXIS2_PLACEMENT_3D ( 'NONE', #21, #262, #279 ) ;
#133 = ORIENTED_EDGE ( 'NONE', *, *, #273, .T. ) ;
#134 = VECTOR ( 'NONE', #150, 1000.000000000000000 ) ;
#135 = ADVANCED_FACE ( 'NONE', ( #163 ), #300, .T. ) ;
#136 = CARTESIAN_POINT ( 'NONE',  ( 10.00000000000000200, 10.00000000000000200, 10.00000000000000000 ) ) ;
#137 = ORIENTED_EDGE ( 'NONE', *, *, #304, .T. ) ;
#138 = LINE ( 'NONE', #79, #46 ) ;
#139 = MANIFOLD_SOLID_BREP ( 'Boss-Extrude2', #266 ) ;
#140 = AXIS2_PLACEMENT_3D ( 'NONE', #290, #321, #205 ) ;
#141 = VECTOR ( 'NONE', #69, 1000.000000000000000 ) ;
#142 = APPROVAL_DATE_TIME ( #146, #1 ) ;
#143 = ORIENTED_EDGE ( 'NONE', *, *, #311, .T. ) ;
#144 = FACE_OUTER_BOUND ( 'NONE', #226, .T. ) ;
#145 = DIRECTION ( 'NONE',  ( -1.000000000000000000, -0.0000000000000000000, -0.0000000000000000000 ) ) ;
#146 = DATE_AND_TIME ( #147, #149 ) ;
#147 = CALENDAR_DATE ( 2014, 5, 6 ) ;
#148 = FACE_OUTER_BOUND ( 'NONE', #259, .T. ) ;
#149 = LOCAL_TIME ( 11, 40, 2.000000000000000000, #154 ) ;
#150 = DIRECTION ( 'NONE',  ( -1.000000000000000000, -0.0000000000000000000, -0.0000000000000000000 ) ) ;
#151 = CARTESIAN_POINT ( 'NONE',  ( 0.0000000000000000000, 0.0000000000000000000, 0.0000000000000000000 ) ) ;
#152 = VERTEX_POINT ( 'NONE', #222 ) ;
#153 = PLANE ( 'NONE',  #158 ) ;
#154 = COORDINATED_UNIVERSAL_TIME_OFFSET ( 7, 0, .BEHIND. ) ;
#155 = DIRECTION ( 'NONE',  ( 1.000000000000000000, 0.0000000000000000000, -0.0000000000000000000 ) ) ;
#156 = APPLICATION_CONTEXT ( 'configuration controlled 3d designs of mechanical parts and assemblies' ) ;
#157 = MECHANICAL_CONTEXT ( 'NONE', #90, 'mechanical' ) ;
#158 = AXIS2_PLACEMENT_3D ( 'NONE', #221, #177, #272 ) ;
#159 = PLANE ( 'NONE',  #132 ) ;
#160 = APPROVAL_PERSON_ORGANIZATION ( #161, #1, #318 ) ;
#161 = PERSON_AND_ORGANIZATION ( #263, #276 ) ;
#162 = ADVANCED_FACE ( 'NONE', ( #7 ), #153, .F. ) ;
#163 = FACE_OUTER_BOUND ( 'NONE', #78, .T. ) ;
#164 = DATE_AND_TIME ( #166, #167 ) ;
#165 = EDGE_LOOP ( 'NONE', ( #133, #117, #231, #289 ) ) ;
#166 = CALENDAR_DATE ( 2014, 5, 6 ) ;
#167 = LOCAL_TIME ( 11, 40, 2.000000000000000000, #172 ) ;
#168 = DIRECTION ( 'NONE',  ( 0.0000000000000000000, 0.0000000000000000000, -1.000000000000000000 ) ) ;
#169 = VECTOR ( 'NONE', #250, 1000.000000000000000 ) ;
#170 = ORIENTED_EDGE ( 'NONE', *, *, #273, .F. ) ;
#171 = CARTESIAN_POINT ( 'NONE',  ( 10.00000000000000200, 10.00000000000000200, 10.00000000000000000 ) ) ;
#172 = COORDINATED_UNIVERSAL_TIME_OFFSET ( 7, 0, .BEHIND. ) ;
#173 =( LENGTH_UNIT ( ) NAMED_UNIT ( * ) SI_UNIT ( .MILLI., .METRE. ) );
#174 = LINE ( 'NONE', #4, #31 ) ;
#175 = AXIS2_PLACEMENT_3D ( 'NONE', #118, #123, #286 ) ;
#176 = PERSON_AND_ORGANIZATION ( #263, #276 ) ;
#177 = DIRECTION ( 'NONE',  ( -1.000000000000000000, 0.0000000000000000000, 0.0000000000000000000 ) ) ;
#178 = PERSON_AND_ORGANIZATION ( #263, #276 ) ;
#179 = LINE ( 'NONE', #105, #120 ) ;
#180 = ORIENTED_EDGE ( 'NONE', *, *, #283, .F. ) ;
#181 = PERSON_AND_ORGANIZATION ( #263, #276 ) ;
#182 = DIRECTION ( 'NONE',  ( -0.0000000000000000000, -0.0000000000000000000, -1.000000000000000000 ) ) ;
#183 = CC_DESIGN_APPROVAL ( #1, ( #22 ) ) ;
#184 = LINE ( 'NONE', #94, #101 ) ;
#185 = VERTEX_POINT ( 'NONE', #230 ) ;
#186 = APPROVAL_DATE_TIME ( #188, #42 ) ;
#187 = EDGE_CURVE ( 'NONE', #253, #185, #70, .T. ) ;
#188 = DATE_AND_TIME ( #193, #200 ) ;
#189 = ADVANCED_FACE ( 'NONE', ( #220 ), #35, .T. ) ;
#190 = CARTESIAN_POINT ( 'NONE',  ( 0.0000000000000000000, 0.0000000000000000000, 10.00000000000000000 ) ) ;
#191 = VECTOR ( 'NONE', #292, 1000.000000000000000 ) ;
#192 = LINE ( 'NONE', #234, #134 ) ;
#193 = CALENDAR_DATE ( 2014, 5, 6 ) ;
#194 = AXIS2_PLACEMENT_3D ( 'NONE', #298, #127, #116 ) ;
#195 = DESIGN_CONTEXT ( 'detailed design', #156, 'design' ) ;
#196 = DIRECTION ( 'NONE',  ( -0.0000000000000000000, -1.000000000000000000, -0.0000000000000000000 ) ) ;
#197 = CLOSED_SHELL ( 'NONE', ( #49, #12, #73, #278, #189 ) ) ;
#198 = ORIENTED_EDGE ( 'NONE', *, *, #299, .T. ) ;
#199 = CARTESIAN_POINT ( 'NONE',  ( 10.00000000000000200, -5.306039724263175300E-015, 10.00000000000000000 ) ) ;
#200 = LOCAL_TIME ( 11, 40, 2.000000000000000000, #201 ) ;
#201 = COORDINATED_UNIVERSAL_TIME_OFFSET ( 7, 0, .BEHIND. ) ;
#202 = AXIS2_PLACEMENT_3D ( 'NONE', #89, #129, #131 ) ;
#203 = ORIENTED_EDGE ( 'NONE', *, *, #19, .T. ) ;
#204 = APPROVAL_PERSON_ORGANIZATION ( #208, #42, #284 ) ;
#205 = DIRECTION ( 'NONE',  ( -1.000000000000000000, 0.0000000000000000000, 0.0000000000000000000 ) ) ;
#206 = ORIENTED_EDGE ( 'NONE', *, *, #288, .T. ) ;
#207 = EDGE_CURVE ( 'NONE', #24, #275, #38, .T. ) ;
#208 = PERSON_AND_ORGANIZATION ( #263, #276 ) ;
#209 = DATE_AND_TIME ( #214, #218 ) ;
#210 = CARTESIAN_POINT ( 'NONE',  ( 0.0000000000000000000, 0.0000000000000000000, 10.00000000000000000 ) ) ;
#211 = PLANE ( 'NONE',  #194 ) ;
#212 = PERSON_AND_ORGANIZATION_ROLE ( 'creator' ) ;
#213 = LINE ( 'NONE', #54, #111 ) ;
#214 = CALENDAR_DATE ( 2014, 5, 6 ) ;
#215 = CARTESIAN_POINT ( 'NONE',  ( 10.00000000000000200, -5.306039724263175300E-015, 10.00000000000000000 ) ) ;
#216 = LINE ( 'NONE', #171, #91 ) ;
#217 = CARTESIAN_POINT ( 'NONE',  ( 0.0000000000000000000, 0.0000000000000000000, 0.0000000000000000000 ) ) ;
#218 = LOCAL_TIME ( 11, 40, 2.000000000000000000, #223 ) ;
#219 = CARTESIAN_POINT ( 'NONE',  ( 0.0000000000000000000, 0.0000000000000000000, 10.00000000000000000 ) ) ;
#220 = FACE_OUTER_BOUND ( 'NONE', #56, .T. ) ;
#221 = CARTESIAN_POINT ( 'NONE',  ( 10.00000000000000200, 10.00000000000000200, 10.00000000000000000 ) ) ;
#222 = CARTESIAN_POINT ( 'NONE',  ( 10.00000000000000200, 10.00000000000000200, 10.00000000000000000 ) ) ;
#223 = COORDINATED_UNIVERSAL_TIME_OFFSET ( 7, 0, .BEHIND. ) ;
#224 = AXIS2_PLACEMENT_3D ( 'NONE', #103, #115, #121 ) ;
#225 = ORIENTED_EDGE ( 'NONE', *, *, #264, .T. ) ;
#226 = EDGE_LOOP ( 'NONE', ( #198, #280, #25, #6 ) ) ;
#227 = PERSON_AND_ORGANIZATION ( #263, #276 ) ;
#228 = APPROVAL_DATE_TIME ( #232, #71 ) ;
#229 = EDGE_CURVE ( 'NONE', #285, #314, #60, .T. ) ;
#230 = CARTESIAN_POINT ( 'NONE',  ( 0.0000000000000000000, 0.0000000000000000000, 0.0000000000000000000 ) ) ;
#231 = ORIENTED_EDGE ( 'NONE', *, *, #264, .F. ) ;
#232 = DATE_AND_TIME ( #236, #238 ) ;
#233 = ADVANCED_BREP_SHAPE_REPRESENTATION ( 'step_48999', ( #48, #139, #86 ), #113 ) ;
#234 = CARTESIAN_POINT ( 'NONE',  ( 0.0000000000000000000, 10.00000000000000200, 0.0000000000000000000 ) ) ;
#235 = LINE ( 'NONE', #199, #320 ) ;
#236 = CALENDAR_DATE ( 2014, 5, 6 ) ;
#237 = PERSON_AND_ORGANIZATION_ROLE ( 'design_supplier' ) ;
#238 = LOCAL_TIME ( 11, 40, 2.000000000000000000, #242 ) ;
#239 =( NAMED_UNIT ( * ) SI_UNIT ( $, .STERADIAN. ) SOLID_ANGLE_UNIT ( ) );
#240 = LINE ( 'NONE', #43, #27 ) ;
#241 = CC_DESIGN_SECURITY_CLASSIFICATION ( #22, ( #47 ) ) ;
#242 = COORDINATED_UNIVERSAL_TIME_OFFSET ( 7, 0, .BEHIND. ) ;
#243 = AXIS2_PLACEMENT_3D ( 'NONE', #58, #85, #87 ) ;
#244 = VERTEX_POINT ( 'NONE', #215 ) ;
#245 = VERTEX_POINT ( 'NONE', #20 ) ;
#246 =( NAMED_UNIT ( * ) PLANE_ANGLE_UNIT ( ) SI_UNIT ( $, .RADIAN. ) );
#247 = EDGE_CURVE ( 'NONE', #253, #152, #216, .T. ) ;
#248 = APPROVAL_PERSON_ORGANIZATION ( #249, #71, #119 ) ;
#249 = PERSON_AND_ORGANIZATION ( #263, #276 ) ;
#250 = DIRECTION ( 'NONE',  ( -0.0000000000000000000, -0.0000000000000000000, -1.000000000000000000 ) ) ;
#251 = ADVANCED_FACE ( 'NONE', ( #17 ), #159, .F. ) ;
#252 = VERTEX_POINT ( 'NONE', #62 ) ;
#253 = VERTEX_POINT ( 'NONE', #257 ) ;
#254 = DIRECTION ( 'NONE',  ( 0.7071067811865474600, 0.7071067811865474600, -0.0000000000000000000 ) ) ;
#255 = VERTEX_POINT ( 'NONE', #313 ) ;
#256 = PRODUCT_RELATED_PRODUCT_CATEGORY ( 'detail', '', ( #294 ) ) ;
#257 = CARTESIAN_POINT ( 'NONE',  ( 0.0000000000000000000, 0.0000000000000000000, 10.00000000000000000 ) ) ;
#258 = ORIENTED_EDGE ( 'NONE', *, *, #9, .T. ) ;
#259 = EDGE_LOOP ( 'NONE', ( #206, #75, #301, #45 ) ) ;
#260 = CARTESIAN_POINT ( 'NONE',  ( 10.00000000000000200, 10.00000000000000200, 0.0000000000000000000 ) ) ;
#261 = CARTESIAN_POINT ( 'NONE',  ( 0.0000000000000000000, 0.0000000000000000000, 0.0000000000000000000 ) ) ;
#262 = DIRECTION ( 'NONE',  ( 5.306039724263174900E-016, 1.000000000000000000, -0.0000000000000000000 ) ) ;
#263 = PERSON ( 'UNSPECIFIED', 'UNSPECIFIED', 'UNSPECIFIED', ('UNSPECIFIED'), ('UNSPECIFIED'), ('UNSPECIFIED') ) ;
#264 = EDGE_CURVE ( 'NONE', #245, #285, #26, .T. ) ;
#265 = ORIENTED_EDGE ( 'NONE', *, *, #299, .F. ) ;
#266 = CLOSED_SHELL ( 'NONE', ( #251, #162, #93, #135, #307 ) ) ;
#267 = PERSON_AND_ORGANIZATION ( #263, #276 ) ;
#268 = DIRECTION ( 'NONE',  ( -0.7071067811865474600, -0.7071067811865474600, -0.0000000000000000000 ) ) ;
#269 = LINE ( 'NONE', #57, #37 ) ;
#270 = CARTESIAN_POINT ( 'NONE',  ( 0.0000000000000000000, 0.0000000000000000000, 0.0000000000000000000 ) ) ;
#271 = LINE ( 'NONE', #136, #191 ) ;
#272 = DIRECTION ( 'NONE',  ( 0.0000000000000000000, 0.0000000000000000000, 1.000000000000000000 ) ) ;
#273 = EDGE_CURVE ( 'NONE', #252, #314, #184, .T. ) ;
#274 = ORIENTED_EDGE ( 'NONE', *, *, #247, .F. ) ;
#275 = VERTEX_POINT ( 'NONE', #107 ) ;
#276 = ORGANIZATION ( 'UNSPECIFIED', 'UNSPECIFIED', '' ) ;
#277 = SHAPE_DEFINITION_REPRESENTATION ( #97, #233 ) ;
#278 = ADVANCED_FACE ( 'NONE', ( #61 ), #303, .F. ) ;
#279 = DIRECTION ( 'NONE',  ( -1.000000000000000000, 5.306039724263174900E-016, 0.0000000000000000000 ) ) ;
#280 = ORIENTED_EDGE ( 'NONE', *, *, #207, .F. ) ;
#281 = APPLICATION_PROTOCOL_DEFINITION ( 'international standard', 'config_control_design', 1994, #156 ) ;
#282 = FACE_OUTER_BOUND ( 'NONE', #165, .T. ) ;
#283 = EDGE_CURVE ( 'NONE', #185, #255, #34, .T. ) ;
#284 = APPROVAL_ROLE ( '' ) ;
#285 = VERTEX_POINT ( 'NONE', #219 ) ;
#286 = DIRECTION ( 'NONE',  ( 1.000000000000000000, 0.0000000000000000000, -0.0000000000000000000 ) ) ;
#287 = EDGE_CURVE ( 'NONE', #245, #252, #240, .T. ) ;
#288 = EDGE_CURVE ( 'NONE', #275, #185, #310, .T. ) ;
#289 = ORIENTED_EDGE ( 'NONE', *, *, #287, .T. ) ;
#290 = CARTESIAN_POINT ( 'NONE',  ( 0.0000000000000000000, 0.0000000000000000000, 0.0000000000000000000 ) ) ;
#291 = DIRECTION ( 'NONE',  ( -1.000000000000000000, 0.0000000000000000000, 0.0000000000000000000 ) ) ;
#292 = DIRECTION ( 'NONE',  ( -0.0000000000000000000, 1.000000000000000000, -0.0000000000000000000 ) ) ;
#293 = EDGE_CURVE ( 'NONE', #152, #255, #125, .T. ) ;
#294 = PRODUCT ( 'step_48999', 'step_48999', '', ( #157 ) ) ;
#295 = ORIENTED_EDGE ( 'NONE', *, *, #311, .F. ) ;
#296 = CARTESIAN_POINT ( 'NONE',  ( 10.00000000000000200, 10.00000000000000200, 10.00000000000000000 ) ) ;
#297 = CARTESIAN_POINT ( 'NONE',  ( 0.0000000000000000000, 10.00000000000000200, 10.00000000000000000 ) ) ;
#298 = CARTESIAN_POINT ( 'NONE',  ( 0.0000000000000000000, 0.0000000000000000000, 10.00000000000000000 ) ) ;
#299 = EDGE_CURVE ( 'NONE', #255, #275, #192, .T. ) ;
#300 = PLANE ( 'NONE',  #175 ) ;
#301 = ORIENTED_EDGE ( 'NONE', *, *, #19, .F. ) ;
#302 = ORIENTED_EDGE ( 'NONE', *, *, #229, .T. ) ;
#303 = PLANE ( 'NONE',  #122 ) ;
#304 = EDGE_CURVE ( 'NONE', #152, #24, #174, .T. ) ;
#305 = VECTOR ( 'NONE', #268, 1000.000000000000100 ) ;
#306 = DIRECTION ( 'NONE',  ( 0.7071067811865474600, 0.7071067811865474600, -0.0000000000000000000 ) ) ;
#307 = ADVANCED_FACE ( 'NONE', ( #95 ), #29, .F. ) ;
#308 = DIRECTION ( 'NONE',  ( 0.0000000000000000000, 0.0000000000000000000, 1.000000000000000000 ) ) ;
#309 = DIRECTION ( 'NONE',  ( 0.0000000000000000000, 0.0000000000000000000, 1.000000000000000000 ) ) ;
#310 = LINE ( 'NONE', #151, #66 ) ;
#311 = EDGE_CURVE ( 'NONE', #244, #245, #271, .T. ) ;
#312 = DATE_TIME_ROLE ( 'creation_date' ) ;
#313 = CARTESIAN_POINT ( 'NONE',  ( 10.00000000000000200, 10.00000000000000200, 0.0000000000000000000 ) ) ;
#314 = VERTEX_POINT ( 'NONE', #217 ) ;
#315 = EDGE_CURVE ( 'NONE', #285, #244, #235, .T. ) ;
#316 = DIRECTION ( 'NONE',  ( -0.0000000000000000000, -0.0000000000000000000, -1.000000000000000000 ) ) ;
#317 = ORIENTED_EDGE ( 'NONE', *, *, #36, .F. ) ;
#318 = APPROVAL_ROLE ( '' ) ;
#319 = CARTESIAN_POINT ( 'NONE',  ( 0.0000000000000000000, 0.0000000000000000000, 10.00000000000000000 ) ) ;
#320 = VECTOR ( 'NONE', #53, 1000.000000000000000 ) ;
#321 = DIRECTION ( 'NONE',  ( 0.0000000000000000000, 0.0000000000000000000, -1.000000000000000000 ) ) ;
ENDSEC;
END-ISO-10303-21;
