ISO-10303-21;
HEADER;
FILE_DESCRIPTION (( 'STEP AP203' ),
    '1' );
FILE_NAME ('4271-E0W.STEP',
    '2015-05-29T14:19:14',
    ( 'admin' ),
    ( '' ),
    'SwSTEP 2.0',
    'SolidWorks 2014',
    '' );
FILE_SCHEMA (( 'CONFIG_CONTROL_DESIGN' ));
ENDSEC;

DATA;
#1 = DIRECTION ( 'NONE',  ( 0.0000000000000000000, 0.0000000000000000000, 1.000000000000000000 ) ) ;
#2 = CALENDAR_DATE ( 2015, 29, 5 ) ;
#3 = EDGE_LOOP ( 'NONE', ( #140, #241, #270, #106 ) ) ;
#4 = CARTESIAN_POINT ( 'NONE',  ( -0.9000000000000000200, 0.0000000000000000000, 2.999999999999999100 ) ) ;
#5 = EDGE_CURVE ( 'NONE', #221, #287, #35, .T. ) ;
#6 = ORIENTED_EDGE ( 'NONE', *, *, #39, .T. ) ;
#7 = CARTESIAN_POINT ( 'NONE',  ( -0.9000000000000000200, 0.0000000000000000000, 0.0000000000000000000 ) ) ;
#8 =( GEOMETRIC_REPRESENTATION_CONTEXT ( 3 ) GLOBAL_UNCERTAINTY_ASSIGNED_CONTEXT ( ( #30 ) ) GLOBAL_UNIT_ASSIGNED_CONTEXT ( ( #286, #285, #283 ) ) REPRESENTATION_CONTEXT ( 'NONE', 'WORKASPACE' ) );
#9 = LOCAL_TIME ( 10, 19, 14.00000000000000000, #117 ) ;
#10 = ORIENTED_EDGE ( 'NONE', *, *, #234, .T. ) ;
#11 = CARTESIAN_POINT ( 'NONE',  ( -0.9000000000000000200, 0.0000000000000000000, 0.0000000000000000000 ) ) ;
#12 = CONICAL_SURFACE ( 'NONE', #212, 2.749999999999999100, 0.7853981633974491700 ) ;
#13 = EDGE_LOOP ( 'NONE', ( #282, #125, #26, #63 ) ) ;
#14 = CC_DESIGN_DATE_AND_TIME_ASSIGNMENT ( #165, #48, ( #97 ) ) ;
#15 = CARTESIAN_POINT ( 'NONE',  ( -0.6500000000000001300, 0.0000000000000000000, 0.0000000000000000000 ) ) ;
#16 = VECTOR ( 'NONE', #29, 999.9999999999998900 ) ;
#17 = PRODUCT ( '4271-E0W', '4271-E0W', '', ( #96 ) ) ;
#18 = DIRECTION ( 'NONE',  ( 0.0000000000000000000, 0.0000000000000000000, -1.000000000000000000 ) ) ;
#19 = AXIS2_PLACEMENT_3D ( 'NONE', #11, #271, #249 ) ;
#20 = EDGE_CURVE ( 'NONE', #287, #245, #216, .T. ) ;
#21 = FACE_OUTER_BOUND ( 'NONE', #261, .T. ) ;
#22 = DIRECTION ( 'NONE',  ( 0.0000000000000000000, -1.224646799147353200E-016, 1.000000000000000000 ) ) ;
#23 = ORIENTED_EDGE ( 'NONE', *, *, #128, .F. ) ;
#24 = CARTESIAN_POINT ( 'NONE',  ( -12.89933901130544100, 0.0000000000000000000, 0.0000000000000000000 ) ) ;
#25 = APPROVAL_PERSON_ORGANIZATION ( #227, #83, #175 ) ;
#26 = ORIENTED_EDGE ( 'NONE', *, *, #148, .T. ) ;
#27 = AXIS2_PLACEMENT_3D ( 'NONE', #15, #284, #194 ) ;
#28 = AXIS2_PLACEMENT_3D ( 'NONE', #233, #273, #185 ) ;
#29 = DIRECTION ( 'NONE',  ( 0.7071067811865469100, 8.659560562354942700E-017, 0.7071067811865482400 ) ) ;
#30 = UNCERTAINTY_MEASURE_WITH_UNIT (LENGTH_MEASURE( 1.000000000000000100E-005 ), #286, 'distance_accuracy_value', 'NONE');
#31 = CC_DESIGN_PERSON_AND_ORGANIZATION_ASSIGNMENT ( #173, #36, ( #276 ) ) ;
#32 = PERSON_AND_ORGANIZATION ( #54, #217 ) ;
#33 = ORIENTED_EDGE ( 'NONE', *, *, #180, .T. ) ;
#34 = PRODUCT_DEFINITION ( 'UNKNOWN', '', #276, #240 ) ;
#35 = LINE ( 'NONE', #211, #248 ) ;
#36 = PERSON_AND_ORGANIZATION_ROLE ( 'creator' ) ;
#37 = CC_DESIGN_PERSON_AND_ORGANIZATION_ASSIGNMENT ( #192, #138, ( #276 ) ) ;
#38 = VERTEX_POINT ( 'NONE', #174 ) ;
#39 = EDGE_CURVE ( 'NONE', #98, #224, #183, .T. ) ;
#40 = CARTESIAN_POINT ( 'NONE',  ( -12.89933901130544100, 0.0000000000000000000, 0.0000000000000000000 ) ) ;
#41 = ORIENTED_EDGE ( 'NONE', *, *, #86, .T. ) ;
#42 = CARTESIAN_POINT ( 'NONE',  ( -0.9000000000000000200, 0.0000000000000000000, 0.0000000000000000000 ) ) ;
#43 = CARTESIAN_POINT ( 'NONE',  ( 0.3499999999999648900, 0.0000000000000000000, 0.0000000000000000000 ) ) ;
#44 = AXIS2_PLACEMENT_3D ( 'NONE', #242, #202, #275 ) ;
#45 = CALENDAR_DATE ( 2015, 29, 5 ) ;
#46 = APPLICATION_PROTOCOL_DEFINITION ( 'international standard', 'config_control_design', 1994, #77 ) ;
#47 = ORIENTED_EDGE ( 'NONE', *, *, #86, .F. ) ;
#48 = DATE_TIME_ROLE ( 'classification_date' ) ;
#49 = FACE_OUTER_BOUND ( 'NONE', #145, .T. ) ;
#50 = LINE ( 'NONE', #4, #166 ) ;
#51 = ORIENTED_EDGE ( 'NONE', *, *, #229, .T. ) ;
#52 = PERSON_AND_ORGANIZATION_ROLE ( 'creator' ) ;
#53 = AXIS2_PLACEMENT_3D ( 'NONE', #7, #107, #151 ) ;
#54 = PERSON ( 'UNSPECIFIED', 'UNSPECIFIED', 'UNSPECIFIED', ('UNSPECIFIED'), ('UNSPECIFIED'), ('UNSPECIFIED') ) ;
#55 = APPROVAL ( #157, 'UNSPECIFIED' ) ;
#56 = ORIENTED_EDGE ( 'NONE', *, *, #289, .T. ) ;
#57 = MANIFOLD_SOLID_BREP ( '4271-001-1-solid1', #207 ) ;
#58 = DIRECTION ( 'NONE',  ( -1.000000000000000000, -0.0000000000000000000, -0.0000000000000000000 ) ) ;
#59 = CARTESIAN_POINT ( 'NONE',  ( 0.3499999999999648900, 0.0000000000000000000, 0.0000000000000000000 ) ) ;
#60 = VERTEX_POINT ( 'NONE', #112 ) ;
#61 = AXIS2_PLACEMENT_3D ( 'NONE', #231, #167, #200 ) ;
#62 = CARTESIAN_POINT ( 'NONE',  ( 0.9000000000000000200, 0.0000000000000000000, 0.0000000000000000000 ) ) ;
#63 = ORIENTED_EDGE ( 'NONE', *, *, #203, .F. ) ;
#64 = CARTESIAN_POINT ( 'NONE',  ( -0.9000000000000000200, 3.673940397442058900E-016, -2.999999999999999100 ) ) ;
#65 = DIRECTION ( 'NONE',  ( -1.000000000000000000, -0.0000000000000000000, -0.0000000000000000000 ) ) ;
#66 = APPROVAL_DATE_TIME ( #76, #184 ) ;
#67 = DATE_AND_TIME ( #199, #9 ) ;
#68 = ORIENTED_EDGE ( 'NONE', *, *, #148, .F. ) ;
#69 = APPROVAL_ROLE ( '' ) ;
#70 = FACE_OUTER_BOUND ( 'NONE', #298, .T. ) ;
#71 = FACE_OUTER_BOUND ( 'NONE', #13, .T. ) ;
#72 = AXIS2_PLACEMENT_3D ( 'NONE', #40, #210, #239 ) ;
#73 = CC_DESIGN_SECURITY_CLASSIFICATION ( #97, ( #276 ) ) ;
#74 = EDGE_CURVE ( 'NONE', #245, #287, #259, .T. ) ;
#75 = APPLICATION_CONTEXT ( 'configuration controlled 3d designs of mechanical parts and assemblies' ) ;
#76 = DATE_AND_TIME ( #190, #266 ) ;
#77 = APPLICATION_CONTEXT ( 'configuration controlled 3d designs of mechanical parts and assemblies' ) ;
#78 = ORIENTED_EDGE ( 'NONE', *, *, #5, .F. ) ;
#79 = DIRECTION ( 'NONE',  ( 0.0000000000000000000, 0.0000000000000000000, 1.000000000000000000 ) ) ;
#80 = ADVANCED_FACE ( 'NONE', ( #256 ), #268, .T. ) ;
#81 = SHAPE_DEFINITION_REPRESENTATION ( #225, #257 ) ;
#82 = ORIENTED_EDGE ( 'NONE', *, *, #296, .T. ) ;
#83 = APPROVAL ( #186, 'UNSPECIFIED' ) ;
#84 = AXIS2_PLACEMENT_3D ( 'NONE', #43, #65, #85 ) ;
#85 = DIRECTION ( 'NONE',  ( 0.0000000000000000000, 0.0000000000000000000, 1.000000000000000000 ) ) ;
#86 = EDGE_CURVE ( 'NONE', #38, #221, #253, .T. ) ;
#87 = CIRCLE ( 'NONE', #120, 13.80000000000000100 ) ;
#88 = LINE ( 'NONE', #291, #159 ) ;
#89 = PERSON_AND_ORGANIZATION ( #54, #217 ) ;
#90 = DIRECTION ( 'NONE',  ( -0.7770469438454267200, 7.708449240609173400E-017, -0.6294426479517274400 ) ) ;
#91 = ORIENTED_EDGE ( 'NONE', *, *, #289, .F. ) ;
#92 = FACE_OUTER_BOUND ( 'NONE', #278, .T. ) ;
#93 = APPROVAL_DATE_TIME ( #67, #83 ) ;
#94 = CARTESIAN_POINT ( 'NONE',  ( -0.9000000000000000200, 0.0000000000000000000, -2.749999999999999100 ) ) ;
#95 = PERSON_AND_ORGANIZATION ( #54, #217 ) ;
#96 = MECHANICAL_CONTEXT ( 'NONE', #75, 'mechanical' ) ;
#97 = SECURITY_CLASSIFICATION ( '', '', #236 ) ;
#98 = VERTEX_POINT ( 'NONE', #277 ) ;
#99 = LOCAL_TIME ( 10, 19, 14.00000000000000000, #131 ) ;
#100 = DIRECTION ( 'NONE',  ( -1.000000000000000000, -0.0000000000000000000, -0.0000000000000000000 ) ) ;
#101 = APPROVAL_ROLE ( '' ) ;
#102 = AXIS2_PLACEMENT_3D ( 'NONE', #191, #297, #251 ) ;
#103 = FACE_OUTER_BOUND ( 'NONE', #243, .T. ) ;
#104 = COORDINATED_UNIVERSAL_TIME_OFFSET ( 5, 0, .BEHIND. ) ;
#105 = DIRECTION ( 'NONE',  ( 0.0000000000000000000, 0.0000000000000000000, -1.000000000000000000 ) ) ;
#106 = ORIENTED_EDGE ( 'NONE', *, *, #74, .T. ) ;
#107 = DIRECTION ( 'NONE',  ( -1.000000000000000000, -0.0000000000000000000, -0.0000000000000000000 ) ) ;
#108 = EDGE_LOOP ( 'NONE', ( #56, #41 ) ) ;
#109 = VECTOR ( 'NONE', #176, 1000.000000000000000 ) ;
#110 = ORIENTED_EDGE ( 'NONE', *, *, #296, .F. ) ;
#111 = PRODUCT_RELATED_PRODUCT_CATEGORY ( 'detail', '', ( #17 ) ) ;
#112 = CARTESIAN_POINT ( 'NONE',  ( 0.6491660699102005400, 0.0000000000000000000, 2.757662153215975700 ) ) ;
#113 = LOCAL_TIME ( 10, 19, 14.00000000000000000, #155 ) ;
#114 = AXIS2_PLACEMENT_3D ( 'NONE', #187, #279, #169 ) ;
#115 = DIRECTION ( 'NONE',  ( 1.000000000000000000, 0.0000000000000000000, 0.0000000000000000000 ) ) ;
#116 = ORIENTED_EDGE ( 'NONE', *, *, #74, .F. ) ;
#117 = COORDINATED_UNIVERSAL_TIME_OFFSET ( 5, 0, .BEHIND. ) ;
#118 = ADVANCED_FACE ( 'NONE', ( #274 ), #168, .T. ) ;
#119 = TOROIDAL_SURFACE ( 'NONE', #198, 0.1350660988694561100, 13.80000000000000100 ) ;
#120 = AXIS2_PLACEMENT_3D ( 'NONE', #126, #269, #136 ) ;
#121 = CONICAL_SURFACE ( 'NONE', #114, 2.749999999999999100, 0.7853981633974491700 ) ;
#122 = CARTESIAN_POINT ( 'NONE',  ( -0.9000000000000000200, 3.367778697655220000E-016, 2.749999999999999100 ) ) ;
#123 = VERTEX_POINT ( 'NONE', #215 ) ;
#124 = ADVANCED_FACE ( 'NONE', ( #21 ), #121, .T. ) ;
#125 = ORIENTED_EDGE ( 'NONE', *, *, #134, .F. ) ;
#126 = CARTESIAN_POINT ( 'NONE',  ( -12.89933901130544100, 0.0000000000000000000, 0.1350660988694561100 ) ) ;
#127 = CARTESIAN_POINT ( 'NONE',  ( 0.3499999999999648900, 3.673940397442058900E-016, -2.999999999999999100 ) ) ;
#128 = EDGE_CURVE ( 'NONE', #123, #60, #149, .T. ) ;
#129 = APPROVAL_STATUS ( 'not_yet_approved' ) ;
#130 = DIRECTION ( 'NONE',  ( 0.0000000000000000000, 0.0000000000000000000, 1.000000000000000000 ) ) ;
#131 = COORDINATED_UNIVERSAL_TIME_OFFSET ( 5, 0, .BEHIND. ) ;
#132 = PERSON_AND_ORGANIZATION ( #54, #217 ) ;
#133 = CONICAL_SURFACE ( 'NONE', #265, 2.999999999999999100, 0.6808357335380194100 ) ;
#134 = EDGE_CURVE ( 'NONE', #60, #123, #162, .T. ) ;
#135 = ADVANCED_FACE ( 'NONE', ( #70 ), #133, .T. ) ;
#136 = DIRECTION ( 'NONE',  ( 0.0000000000000000000, 0.0000000000000000000, -1.000000000000000000 ) ) ;
#137 = DIRECTION ( 'NONE',  ( 0.0000000000000000000, 0.0000000000000000000, 1.000000000000000000 ) ) ;
#138 = PERSON_AND_ORGANIZATION_ROLE ( 'design_supplier' ) ;
#139 = ORIENTED_EDGE ( 'NONE', *, *, #229, .F. ) ;
#140 = ORIENTED_EDGE ( 'NONE', *, *, #208, .F. ) ;
#141 = CIRCLE ( 'NONE', #218, 2.999999999999999100 ) ;
#142 = TOROIDAL_SURFACE ( 'NONE', #72, 0.1350660988694561100, 13.80000000000000100 ) ;
#143 = DIRECTION ( 'NONE',  ( 0.0000000000000000000, 0.0000000000000000000, -1.000000000000000000 ) ) ;
#144 = DIRECTION ( 'NONE',  ( -0.0000000000000000000, 1.000000000000000000, 1.224646799147353200E-016 ) ) ;
#145 = EDGE_LOOP ( 'NONE', ( #47, #82, #153, #78 ) ) ;
#146 = CARTESIAN_POINT ( 'NONE',  ( 0.3499999999999648900, 3.673940397442058900E-016, -2.999999999999999100 ) ) ;
#147 = CC_DESIGN_APPROVAL ( #83, ( #276 ) ) ;
#148 = EDGE_CURVE ( 'NONE', #60, #98, #88, .T. ) ;
#149 = CIRCLE ( 'NONE', #61, 2.757662153215968600 ) ;
#150 = LINE ( 'NONE', #64, #109 ) ;
#151 = DIRECTION ( 'NONE',  ( 0.0000000000000000000, 0.0000000000000000000, -1.000000000000000000 ) ) ;
#152 = CC_DESIGN_DATE_AND_TIME_ASSIGNMENT ( #237, #188, ( #34 ) ) ;
#153 = ORIENTED_EDGE ( 'NONE', *, *, #20, .F. ) ;
#154 = ADVANCED_FACE ( 'NONE', ( #71 ), #223, .T. ) ;
#155 = COORDINATED_UNIVERSAL_TIME_OFFSET ( 5, 0, .BEHIND. ) ;
#156 = CC_DESIGN_PERSON_AND_ORGANIZATION_ASSIGNMENT ( #95, #267, ( #97 ) ) ;
#157 = APPROVAL_STATUS ( 'not_yet_approved' ) ;
#158 = ORIENTED_EDGE ( 'NONE', *, *, #20, .T. ) ;
#159 = VECTOR ( 'NONE', #201, 1000.000000000000000 ) ;
#160 = CC_DESIGN_APPROVAL ( #184, ( #34 ) ) ;
#161 = CARTESIAN_POINT ( 'NONE',  ( -0.6500000000000001300, 0.0000000000000000000, 2.999999999999999100 ) ) ;
#162 = CIRCLE ( 'NONE', #300, 2.757662153215968600 ) ;
#163 = ADVANCED_FACE ( 'NONE', ( #92 ), #119, .T. ) ;
#164 = EDGE_LOOP ( 'NONE', ( #6, #214, #158, #189 ) ) ;
#165 = DATE_AND_TIME ( #272, #113 ) ;
#166 = VECTOR ( 'NONE', #170, 1000.000000000000000 ) ;
#167 = DIRECTION ( 'NONE',  ( 1.000000000000000000, 0.0000000000000000000, 0.0000000000000000000 ) ) ;
#168 = CYLINDRICAL_SURFACE ( 'NONE', #28, 2.999999999999999100 ) ;
#169 = DIRECTION ( 'NONE',  ( 0.0000000000000000000, 0.0000000000000000000, -1.000000000000000000 ) ) ;
#170 = DIRECTION ( 'NONE',  ( -1.000000000000000000, -0.0000000000000000000, -0.0000000000000000000 ) ) ;
#171 = CIRCLE ( 'NONE', #258, 13.80000000000000100 ) ;
#172 = PLANE ( 'NONE',  #290 ) ;
#173 = PERSON_AND_ORGANIZATION ( #54, #217 ) ;
#174 = CARTESIAN_POINT ( 'NONE',  ( -0.9000000000000000200, 3.520859547548639500E-016, 2.749999999999999100 ) ) ;
#175 = APPROVAL_ROLE ( '' ) ;
#176 = DIRECTION ( 'NONE',  ( -1.000000000000000000, -0.0000000000000000000, -0.0000000000000000000 ) ) ;
#177 = ADVANCED_FACE ( 'NONE', ( #49 ), #12, .T. ) ;
#178 = APPROVAL_PERSON_ORGANIZATION ( #32, #184, #69 ) ;
#179 = CC_DESIGN_APPROVAL ( #55, ( #97 ) ) ;
#180 = EDGE_CURVE ( 'NONE', #123, #224, #295, .T. ) ;
#181 = LOCAL_TIME ( 10, 19, 14.00000000000000000, #104 ) ;
#182 = CIRCLE ( 'NONE', #53, 2.749999999999999100 ) ;
#183 = CIRCLE ( 'NONE', #84, 2.999999999999999100 ) ;
#184 = APPROVAL ( #129, 'UNSPECIFIED' ) ;
#185 = DIRECTION ( 'NONE',  ( 0.0000000000000000000, 0.0000000000000000000, 1.000000000000000000 ) ) ;
#186 = APPROVAL_STATUS ( 'not_yet_approved' ) ;
#187 = CARTESIAN_POINT ( 'NONE',  ( -0.9000000000000000200, 0.0000000000000000000, 0.0000000000000000000 ) ) ;
#188 = DATE_TIME_ROLE ( 'creation_date' ) ;
#189 = ORIENTED_EDGE ( 'NONE', *, *, #262, .F. ) ;
#190 = CALENDAR_DATE ( 2015, 29, 5 ) ;
#191 = CARTESIAN_POINT ( 'NONE',  ( 0.0000000000000000000, 0.0000000000000000000, 0.0000000000000000000 ) ) ;
#192 = PERSON_AND_ORGANIZATION ( #54, #217 ) ;
#193 = VERTEX_POINT ( 'NONE', #62 ) ;
#194 = DIRECTION ( 'NONE',  ( 0.0000000000000000000, 0.0000000000000000000, -1.000000000000000000 ) ) ;
#195 = CARTESIAN_POINT ( 'NONE',  ( 0.3499999999999648900, 0.0000000000000000000, 0.0000000000000000000 ) ) ;
#196 = ADVANCED_FACE ( 'NONE', ( #103 ), #142, .T. ) ;
#197 = FACE_OUTER_BOUND ( 'NONE', #108, .T. ) ;
#198 = AXIS2_PLACEMENT_3D ( 'NONE', #24, #238, #1 ) ;
#199 = CALENDAR_DATE ( 2015, 29, 5 ) ;
#200 = DIRECTION ( 'NONE',  ( 0.0000000000000000000, 0.0000000000000000000, 1.000000000000000000 ) ) ;
#201 = DIRECTION ( 'NONE',  ( -0.7770469438454267200, 0.0000000000000000000, 0.6294426479517274400 ) ) ;
#202 = DIRECTION ( 'NONE',  ( -1.000000000000000000, -0.0000000000000000000, -0.0000000000000000000 ) ) ;
#203 = EDGE_CURVE ( 'NONE', #224, #98, #141, .T. ) ;
#204 = DIRECTION ( 'NONE',  ( 1.000000000000000000, 0.0000000000000000000, 0.0000000000000000000 ) ) ;
#205 = LINE ( 'NONE', #122, #16 ) ;
#206 = APPROVAL_DATE_TIME ( #213, #55 ) ;
#207 = CLOSED_SHELL ( 'NONE', ( #177, #135, #163, #80, #220, #118, #196, #154, #124 ) ) ;
#208 = EDGE_CURVE ( 'NONE', #224, #287, #150, .T. ) ;
#209 = APPROVAL_PERSON_ORGANIZATION ( #250, #55, #101 ) ;
#210 = DIRECTION ( 'NONE',  ( -1.000000000000000000, -0.0000000000000000000, -0.0000000000000000000 ) ) ;
#211 = CARTESIAN_POINT ( 'NONE',  ( -0.9000000000000000200, 0.0000000000000000000, -2.749999999999999100 ) ) ;
#212 = AXIS2_PLACEMENT_3D ( 'NONE', #42, #115, #18 ) ;
#213 = DATE_AND_TIME ( #2, #99 ) ;
#214 = ORIENTED_EDGE ( 'NONE', *, *, #208, .T. ) ;
#215 = CARTESIAN_POINT ( 'NONE',  ( 0.6491660699102005400, 3.377162129065742600E-016, -2.757662153215975700 ) ) ;
#216 = CIRCLE ( 'NONE', #27, 2.999999999999999100 ) ;
#217 = ORGANIZATION ( 'UNSPECIFIED', 'UNSPECIFIED', '' ) ;
#218 = AXIS2_PLACEMENT_3D ( 'NONE', #59, #235, #79 ) ;
#219 = DIRECTION ( 'NONE',  ( 0.0000000000000000000, 0.0000000000000000000, 1.000000000000000000 ) ) ;
#220 = ADVANCED_FACE ( 'NONE', ( #197 ), #172, .F. ) ;
#221 = VERTEX_POINT ( 'NONE', #94 ) ;
#222 = CARTESIAN_POINT ( 'NONE',  ( -0.9000000000000000200, 0.0000000000000000000, 0.0000000000000000000 ) ) ;
#223 = CONICAL_SURFACE ( 'NONE', #226, 2.999999999999999100, 0.6808357335380194100 ) ;
#224 = VERTEX_POINT ( 'NONE', #146 ) ;
#225 = PRODUCT_DEFINITION_SHAPE ( 'NONE', 'NONE',  #34 ) ;
#226 = AXIS2_PLACEMENT_3D ( 'NONE', #246, #100, #137 ) ;
#227 = PERSON_AND_ORGANIZATION ( #54, #217 ) ;
#228 = ORIENTED_EDGE ( 'NONE', *, *, #39, .F. ) ;
#229 = EDGE_CURVE ( 'NONE', #193, #123, #171, .T. ) ;
#230 = CC_DESIGN_PERSON_AND_ORGANIZATION_ASSIGNMENT ( #89, #292, ( #17 ) ) ;
#231 = CARTESIAN_POINT ( 'NONE',  ( 0.6491660699102005400, 0.0000000000000000000, 0.0000000000000000000 ) ) ;
#232 = ORIENTED_EDGE ( 'NONE', *, *, #134, .T. ) ;
#233 = CARTESIAN_POINT ( 'NONE',  ( -0.9000000000000000200, 0.0000000000000000000, 0.0000000000000000000 ) ) ;
#234 = EDGE_CURVE ( 'NONE', #193, #60, #87, .T. ) ;
#235 = DIRECTION ( 'NONE',  ( -1.000000000000000000, -0.0000000000000000000, -0.0000000000000000000 ) ) ;
#236 = SECURITY_CLASSIFICATION_LEVEL ( 'unclassified' ) ;
#237 = DATE_AND_TIME ( #45, #181 ) ;
#238 = DIRECTION ( 'NONE',  ( -1.000000000000000000, -0.0000000000000000000, -0.0000000000000000000 ) ) ;
#239 = DIRECTION ( 'NONE',  ( 0.0000000000000000000, 0.0000000000000000000, 1.000000000000000000 ) ) ;
#240 = DESIGN_CONTEXT ( 'detailed design', #77, 'design' ) ;
#241 = ORIENTED_EDGE ( 'NONE', *, *, #203, .T. ) ;
#242 = CARTESIAN_POINT ( 'NONE',  ( -0.9000000000000000200, 0.0000000000000000000, 0.0000000000000000000 ) ) ;
#243 = EDGE_LOOP ( 'NONE', ( #139, #10, #232 ) ) ;
#244 = DIRECTION ( 'NONE',  ( 0.7071067811865469100, 0.0000000000000000000, -0.7071067811865482400 ) ) ;
#245 = VERTEX_POINT ( 'NONE', #161 ) ;
#246 = CARTESIAN_POINT ( 'NONE',  ( 0.3499999999999648900, 0.0000000000000000000, 0.0000000000000000000 ) ) ;
#247 = VECTOR ( 'NONE', #90, 1000.000000000000000 ) ;
#248 = VECTOR ( 'NONE', #244, 999.9999999999998900 ) ;
#249 = DIRECTION ( 'NONE',  ( 0.0000000000000000000, 0.0000000000000000000, -1.000000000000000000 ) ) ;
#250 = PERSON_AND_ORGANIZATION ( #54, #217 ) ;
#251 = DIRECTION ( 'NONE',  ( 1.000000000000000000, 0.0000000000000000000, 0.0000000000000000000 ) ) ;
#252 = ORIENTED_EDGE ( 'NONE', *, *, #234, .F. ) ;
#253 = CIRCLE ( 'NONE', #19, 2.749999999999999100 ) ;
#254 = DIRECTION ( 'NONE',  ( 1.000000000000000000, 0.0000000000000000000, 0.0000000000000000000 ) ) ;
#255 = ORIENTED_EDGE ( 'NONE', *, *, #128, .T. ) ;
#256 = FACE_OUTER_BOUND ( 'NONE', #164, .T. ) ;
#257 = ADVANCED_BREP_SHAPE_REPRESENTATION ( '4271-E0W', ( #57, #102 ), #8 ) ;
#258 = AXIS2_PLACEMENT_3D ( 'NONE', #299, #144, #22 ) ;
#259 = CIRCLE ( 'NONE', #281, 2.999999999999999100 ) ;
#260 = DIRECTION ( 'NONE',  ( 1.000000000000000000, 0.0000000000000000000, 0.0000000000000000000 ) ) ;
#261 = EDGE_LOOP ( 'NONE', ( #110, #91, #280, #116 ) ) ;
#262 = EDGE_CURVE ( 'NONE', #98, #245, #50, .T. ) ;
#263 = CARTESIAN_POINT ( 'NONE',  ( -0.6500000000000001300, 3.673940397442058900E-016, -2.999999999999999100 ) ) ;
#264 = CARTESIAN_POINT ( 'NONE',  ( 0.6491660699102005400, 0.0000000000000000000, 0.0000000000000000000 ) ) ;
#265 = AXIS2_PLACEMENT_3D ( 'NONE', #195, #58, #130 ) ;
#266 = LOCAL_TIME ( 10, 19, 14.00000000000000000, #294 ) ;
#267 = PERSON_AND_ORGANIZATION_ROLE ( 'classification_officer' ) ;
#268 = CYLINDRICAL_SURFACE ( 'NONE', #44, 2.999999999999999100 ) ;
#269 = DIRECTION ( 'NONE',  ( 0.0000000000000000000, -1.000000000000000000, 0.0000000000000000000 ) ) ;
#270 = ORIENTED_EDGE ( 'NONE', *, *, #262, .T. ) ;
#271 = DIRECTION ( 'NONE',  ( -1.000000000000000000, -0.0000000000000000000, -0.0000000000000000000 ) ) ;
#272 = CALENDAR_DATE ( 2015, 29, 5 ) ;
#273 = DIRECTION ( 'NONE',  ( -1.000000000000000000, -0.0000000000000000000, -0.0000000000000000000 ) ) ;
#274 = FACE_OUTER_BOUND ( 'NONE', #3, .T. ) ;
#275 = DIRECTION ( 'NONE',  ( 0.0000000000000000000, 0.0000000000000000000, 1.000000000000000000 ) ) ;
#276 = PRODUCT_DEFINITION_FORMATION_WITH_SPECIFIED_SOURCE ( 'ANY', '', #17, .NOT_KNOWN. ) ;
#277 = CARTESIAN_POINT ( 'NONE',  ( 0.3499999999999648900, 0.0000000000000000000, 2.999999999999999100 ) ) ;
#278 = EDGE_LOOP ( 'NONE', ( #252, #51, #255 ) ) ;
#279 = DIRECTION ( 'NONE',  ( 1.000000000000000000, 0.0000000000000000000, 0.0000000000000000000 ) ) ;
#280 = ORIENTED_EDGE ( 'NONE', *, *, #5, .T. ) ;
#281 = AXIS2_PLACEMENT_3D ( 'NONE', #288, #204, #105 ) ;
#282 = ORIENTED_EDGE ( 'NONE', *, *, #180, .F. ) ;
#283 =( NAMED_UNIT ( * ) SI_UNIT ( $, .STERADIAN. ) SOLID_ANGLE_UNIT ( ) );
#284 = DIRECTION ( 'NONE',  ( 1.000000000000000000, 0.0000000000000000000, 0.0000000000000000000 ) ) ;
#285 =( NAMED_UNIT ( * ) PLANE_ANGLE_UNIT ( ) SI_UNIT ( $, .RADIAN. ) );
#286 =( LENGTH_UNIT ( ) NAMED_UNIT ( * ) SI_UNIT ( .MILLI., .METRE. ) );
#287 = VERTEX_POINT ( 'NONE', #263 ) ;
#288 = CARTESIAN_POINT ( 'NONE',  ( -0.6500000000000001300, 0.0000000000000000000, 0.0000000000000000000 ) ) ;
#289 = EDGE_CURVE ( 'NONE', #221, #38, #182, .T. ) ;
#290 = AXIS2_PLACEMENT_3D ( 'NONE', #222, #260, #143 ) ;
#291 = CARTESIAN_POINT ( 'NONE',  ( 0.3499999999999648900, 0.0000000000000000000, 2.999999999999999100 ) ) ;
#292 = PERSON_AND_ORGANIZATION_ROLE ( 'design_owner' ) ;
#293 = CC_DESIGN_PERSON_AND_ORGANIZATION_ASSIGNMENT ( #132, #52, ( #34 ) ) ;
#294 = COORDINATED_UNIVERSAL_TIME_OFFSET ( 5, 0, .BEHIND. ) ;
#295 = LINE ( 'NONE', #127, #247 ) ;
#296 = EDGE_CURVE ( 'NONE', #38, #245, #205, .T. ) ;
#297 = DIRECTION ( 'NONE',  ( 0.0000000000000000000, 0.0000000000000000000, 1.000000000000000000 ) ) ;
#298 = EDGE_LOOP ( 'NONE', ( #23, #33, #228, #68 ) ) ;
#299 = CARTESIAN_POINT ( 'NONE',  ( -12.89933901130544100, 1.654082656537993600E-017, -0.1350660988694561100 ) ) ;
#300 = AXIS2_PLACEMENT_3D ( 'NONE', #264, #254, #219 ) ;
#301 = APPLICATION_PROTOCOL_DEFINITION ( 'international standard', 'config_control_design', 1994, #75 ) ;
ENDSEC;
END-ISO-10303-21;
