ISO-10303-21;
HEADER;
FILE_DESCRIPTION (( 'STEP AP203' ),
    '1' );
FILE_NAME ('Web Model 15402_15405.step',
    '2022-03-11T18:14:05',
    ( '' ),
    ( '' ),
    'SwSTEP 2.0',
    'SolidWorks 2021',
    '' );
FILE_SCHEMA (( 'CONFIG_CONTROL_DESIGN' ));
ENDSEC;

DATA;
#1 = DIRECTION ( 'NONE',  ( 0.000000000000000000, 0.000000000000000000, -1.000000000000000000 ) ) ;
#2 = APPROVAL_PERSON_ORGANIZATION ( #98, #157, #68 ) ;
#3 = PERSON_AND_ORGANIZATION ( #49, #31 ) ;
#4 = EDGE_CURVE ( 'NONE', #12, #150, #159, .T. ) ;
#5 = APPROVAL_DATE_TIME ( #114, #157 ) ;
#6 = SHAPE_DEFINITION_REPRESENTATION ( #102, #128 ) ;
#7 = LOCAL_TIME ( 13, 14, 5.000000000000000000, #21 ) ;
#8 = ORIENTED_EDGE ( 'NONE', *, *, #4, .T. ) ;
#9 = CARTESIAN_POINT ( 'NONE',  ( 0.7500000000000000000, 7.776507174585692163E-16, -6.349999999999999645 ) ) ;
#10 = AXIS2_PLACEMENT_3D ( 'NONE', #71, #60, #120 ) ;
#11 = APPROVAL_PERSON_ORGANIZATION ( #165, #104, #111 ) ;
#12 = VERTEX_POINT ( 'NONE', #37 ) ;
#13 = ORIENTED_EDGE ( 'NONE', *, *, #36, .F. ) ;
#14 = CARTESIAN_POINT ( 'NONE',  ( -0.7500000000000000000, 0.000000000000000000, 6.349999999999999645 ) ) ;
#15 = CYLINDRICAL_SURFACE ( 'NONE', #18, 6.349999999999999645 ) ;
#16 = APPROVAL_ROLE ( '' ) ;
#17 = COORDINATED_UNIVERSAL_TIME_OFFSET ( 5, 0, .BEHIND. ) ;
#18 = AXIS2_PLACEMENT_3D ( 'NONE', #156, #64, #65 ) ;
#19 = APPROVAL_DATE_TIME ( #146, #104 ) ;
#20 = APPLICATION_CONTEXT ( 'configuration controlled 3d designs of mechanical parts and assemblies' ) ;
#21 = COORDINATED_UNIVERSAL_TIME_OFFSET ( 5, 0, .BEHIND. ) ;
#22 = APPROVAL ( #144, 'UNSPECIFIED' ) ;
#23 = EDGE_LOOP ( 'NONE', ( #116, #169 ) ) ;
#24 = APPROVAL_STATUS ( 'not_yet_approved' ) ;
#25 = ORIENTED_EDGE ( 'NONE', *, *, #58, .F. ) ;
#26 = DIRECTION ( 'NONE',  ( -1.000000000000000000, -0.000000000000000000, -0.000000000000000000 ) ) ;
#27 = VECTOR ( 'NONE', #26, 1000.000000000000000 ) ;
#28 = CARTESIAN_POINT ( 'NONE',  ( 0.7500000000000000000, 0.000000000000000000, 6.349999999999999645 ) ) ;
#29 = ADVANCED_FACE ( 'NONE', ( #75 ), #138, .F. ) ;
#30 = COORDINATED_UNIVERSAL_TIME_OFFSET ( 5, 0, .BEHIND. ) ;
#31 = ORGANIZATION ( 'UNSPECIFIED', 'UNSPECIFIED', '' ) ;
#32 = PERSON_AND_ORGANIZATION ( #49, #31 ) ;
#33 = CC_DESIGN_PERSON_AND_ORGANIZATION_ASSIGNMENT ( #3, #90, ( #39 ) ) ;
#34 = CARTESIAN_POINT ( 'NONE',  ( -0.7500000000000000000, 0.000000000000000000, 0.000000000000000000 ) ) ;
#35 = EDGE_LOOP ( 'NONE', ( #13, #8, #45, #74 ) ) ;
#36 = EDGE_CURVE ( 'NONE', #12, #115, #62, .T. ) ;
#37 = CARTESIAN_POINT ( 'NONE',  ( 0.7500000000000000000, 7.776507174585692163E-16, -6.349999999999999645 ) ) ;
#38 = LOCAL_TIME ( 13, 14, 5.000000000000000000, #113 ) ;
#39 = PRODUCT_DEFINITION ( 'UNKNOWN', '', #142, #155 ) ;
#40 = APPROVAL_DATE_TIME ( #66, #22 ) ;
#41 = PERSON_AND_ORGANIZATION ( #49, #31 ) ;
#42 = EDGE_CURVE ( 'NONE', #73, #150, #149, .T. ) ;
#43 =( NAMED_UNIT ( * ) PLANE_ANGLE_UNIT ( ) SI_UNIT ( $, .RADIAN. ) );
#44 = DATE_TIME_ROLE ( 'classification_date' ) ;
#45 = ORIENTED_EDGE ( 'NONE', *, *, #118, .T. ) ;
#46 = CIRCLE ( 'NONE', #50, 6.349999999999999645 ) ;
#47 = ORIENTED_EDGE ( 'NONE', *, *, #42, .T. ) ;
#48 = CC_DESIGN_APPROVAL ( #157, ( #81 ) ) ;
#49 = PERSON ( 'UNSPECIFIED', 'UNSPECIFIED', 'UNSPECIFIED', ('UNSPECIFIED'), ('UNSPECIFIED'), ('UNSPECIFIED') ) ;
#50 = AXIS2_PLACEMENT_3D ( 'NONE', #154, #61, #140 ) ;
#51 = DIRECTION ( 'NONE',  ( 0.000000000000000000, 0.000000000000000000, -1.000000000000000000 ) ) ;
#52 = CARTESIAN_POINT ( 'NONE',  ( 0.000000000000000000, 0.000000000000000000, 0.000000000000000000 ) ) ;
#53 = CALENDAR_DATE ( 2022, 11, 3 ) ;
#54 = CC_DESIGN_APPROVAL ( #104, ( #142 ) ) ;
#55 = COORDINATED_UNIVERSAL_TIME_OFFSET ( 5, 0, .BEHIND. ) ;
#56 = APPLICATION_CONTEXT ( 'configuration controlled 3d designs of mechanical parts and assemblies' ) ;
#57 = DIRECTION ( 'NONE',  ( 1.000000000000000000, 0.000000000000000000, 0.000000000000000000 ) ) ;
#58 = EDGE_CURVE ( 'NONE', #115, #12, #46, .T. ) ;
#59 =( GEOMETRIC_REPRESENTATION_CONTEXT ( 3 ) GLOBAL_UNCERTAINTY_ASSIGNED_CONTEXT ( ( #126 ) ) GLOBAL_UNIT_ASSIGNED_CONTEXT ( ( #78, #43, #96 ) ) REPRESENTATION_CONTEXT ( 'NONE', 'WORKASPACE' ) );
#60 = DIRECTION ( 'NONE',  ( 1.000000000000000000, 0.000000000000000000, 0.000000000000000000 ) ) ;
#61 = DIRECTION ( 'NONE',  ( 1.000000000000000000, 0.000000000000000000, 0.000000000000000000 ) ) ;
#62 = CIRCLE ( 'NONE', #93, 6.349999999999999645 ) ;
#63 = CC_DESIGN_PERSON_AND_ORGANIZATION_ASSIGNMENT ( #101, #85, ( #81 ) ) ;
#64 = DIRECTION ( 'NONE',  ( -1.000000000000000000, -0.000000000000000000, -0.000000000000000000 ) ) ;
#65 = DIRECTION ( 'NONE',  ( 0.000000000000000000, 0.000000000000000000, 1.000000000000000000 ) ) ;
#66 = DATE_AND_TIME ( #53, #161 ) ;
#67 = PERSON_AND_ORGANIZATION ( #49, #31 ) ;
#68 = APPROVAL_ROLE ( '' ) ;
#69 = DATE_AND_TIME ( #72, #7 ) ;
#70 = CC_DESIGN_SECURITY_CLASSIFICATION ( #81, ( #142 ) ) ;
#71 = CARTESIAN_POINT ( 'NONE',  ( -0.7500000000000000000, 0.000000000000000000, 0.000000000000000000 ) ) ;
#72 = CALENDAR_DATE ( 2022, 11, 3 ) ;
#73 = VERTEX_POINT ( 'NONE', #14 ) ;
#74 = ORIENTED_EDGE ( 'NONE', *, *, #87, .F. ) ;
#75 = FACE_OUTER_BOUND ( 'NONE', #23, .T. ) ;
#76 = CIRCLE ( 'NONE', #158, 6.349999999999999645 ) ;
#77 = PLANE ( 'NONE',  #117 ) ;
#78 =( LENGTH_UNIT ( ) NAMED_UNIT ( * ) SI_UNIT ( .MILLI., .METRE. ) );
#79 = ADVANCED_FACE ( 'NONE', ( #108 ), #15, .T. ) ;
#80 = CC_DESIGN_PERSON_AND_ORGANIZATION_ASSIGNMENT ( #67, #97, ( #142 ) ) ;
#81 = SECURITY_CLASSIFICATION ( '', '', #132 ) ;
#82 = APPLICATION_PROTOCOL_DEFINITION ( 'international standard', 'config_control_design', 1994, #56 ) ;
#83 = DIRECTION ( 'NONE',  ( 1.000000000000000000, 0.000000000000000000, 0.000000000000000000 ) ) ;
#84 = CLOSED_SHELL ( 'NONE', ( #92, #79, #129, #29 ) ) ;
#85 = PERSON_AND_ORGANIZATION_ROLE ( 'classification_officer' ) ;
#86 = CC_DESIGN_APPROVAL ( #22, ( #39 ) ) ;
#87 = EDGE_CURVE ( 'NONE', #115, #73, #143, .T. ) ;
#88 = ORIENTED_EDGE ( 'NONE', *, *, #36, .T. ) ;
#89 = APPROVAL_PERSON_ORGANIZATION ( #41, #22, #16 ) ;
#90 = PERSON_AND_ORGANIZATION_ROLE ( 'creator' ) ;
#91 = DIRECTION ( 'NONE',  ( 1.000000000000000000, 0.000000000000000000, 0.000000000000000000 ) ) ;
#92 = ADVANCED_FACE ( 'NONE', ( #94 ), #173, .T. ) ;
#93 = AXIS2_PLACEMENT_3D ( 'NONE', #172, #103, #133 ) ;
#94 = FACE_OUTER_BOUND ( 'NONE', #35, .T. ) ;
#95 = MECHANICAL_CONTEXT ( 'NONE', #20, 'mechanical' ) ;
#96 =( NAMED_UNIT ( * ) SI_UNIT ( $, .STERADIAN. ) SOLID_ANGLE_UNIT ( ) );
#97 = PERSON_AND_ORGANIZATION_ROLE ( 'creator' ) ;
#98 = PERSON_AND_ORGANIZATION ( #49, #31 ) ;
#99 = CC_DESIGN_PERSON_AND_ORGANIZATION_ASSIGNMENT ( #32, #168, ( #142 ) ) ;
#100 = EDGE_LOOP ( 'NONE', ( #136, #88 ) ) ;
#101 = PERSON_AND_ORGANIZATION ( #49, #31 ) ;
#102 = PRODUCT_DEFINITION_SHAPE ( 'NONE', 'NONE',  #39 ) ;
#103 = DIRECTION ( 'NONE',  ( 1.000000000000000000, 0.000000000000000000, 0.000000000000000000 ) ) ;
#104 = APPROVAL ( #24, 'UNSPECIFIED' ) ;
#105 = CARTESIAN_POINT ( 'NONE',  ( 0.7500000000000000000, 0.000000000000000000, 6.349999999999999645 ) ) ;
#106 = LOCAL_TIME ( 13, 14, 5.000000000000000000, #55 ) ;
#107 = DIRECTION ( 'NONE',  ( 0.000000000000000000, 0.000000000000000000, -1.000000000000000000 ) ) ;
#108 = FACE_OUTER_BOUND ( 'NONE', #119, .T. ) ;
#109 = AXIS2_PLACEMENT_3D ( 'NONE', #123, #124, #110 ) ;
#110 = DIRECTION ( 'NONE',  ( 0.000000000000000000, 0.000000000000000000, 1.000000000000000000 ) ) ;
#111 = APPROVAL_ROLE ( '' ) ;
#112 = CC_DESIGN_DATE_AND_TIME_ASSIGNMENT ( #134, #167, ( #39 ) ) ;
#113 = COORDINATED_UNIVERSAL_TIME_OFFSET ( 5, 0, .BEHIND. ) ;
#114 = DATE_AND_TIME ( #131, #106 ) ;
#115 = VERTEX_POINT ( 'NONE', #28 ) ;
#116 = ORIENTED_EDGE ( 'NONE', *, *, #42, .F. ) ;
#117 = AXIS2_PLACEMENT_3D ( 'NONE', #122, #91, #1 ) ;
#118 = EDGE_CURVE ( 'NONE', #150, #73, #76, .T. ) ;
#119 = EDGE_LOOP ( 'NONE', ( #171, #25, #151, #47 ) ) ;
#120 = DIRECTION ( 'NONE',  ( 0.000000000000000000, 0.000000000000000000, -1.000000000000000000 ) ) ;
#121 = PRODUCT_RELATED_PRODUCT_CATEGORY ( 'detail', '', ( #135 ) ) ;
#122 = CARTESIAN_POINT ( 'NONE',  ( 0.7500000000000000000, 0.000000000000000000, 0.000000000000000000 ) ) ;
#123 = CARTESIAN_POINT ( 'NONE',  ( 0.7500000000000000000, 0.000000000000000000, 0.000000000000000000 ) ) ;
#124 = DIRECTION ( 'NONE',  ( -1.000000000000000000, -0.000000000000000000, -0.000000000000000000 ) ) ;
#125 = MANIFOLD_SOLID_BREP ( 'Boss-Extrude1', #84 ) ;
#126 = UNCERTAINTY_MEASURE_WITH_UNIT (LENGTH_MEASURE( 1.000000000000000082E-05 ), #78, 'distance_accuracy_value', 'NONE');
#127 = PERSON_AND_ORGANIZATION ( #49, #31 ) ;
#128 = ADVANCED_BREP_SHAPE_REPRESENTATION ( 'Web Model 15402_15405', ( #125, #141 ), #59 ) ;
#129 = ADVANCED_FACE ( 'NONE', ( #153 ), #77, .T. ) ;
#130 = CALENDAR_DATE ( 2022, 11, 3 ) ;
#131 = CALENDAR_DATE ( 2022, 11, 3 ) ;
#132 = SECURITY_CLASSIFICATION_LEVEL ( 'unclassified' ) ;
#133 = DIRECTION ( 'NONE',  ( 0.000000000000000000, 0.000000000000000000, -1.000000000000000000 ) ) ;
#134 = DATE_AND_TIME ( #130, #38 ) ;
#135 = PRODUCT ( 'Web Model 15402_15405', 'Web Model 15402_15405', '', ( #95 ) ) ;
#136 = ORIENTED_EDGE ( 'NONE', *, *, #58, .T. ) ;
#137 = LOCAL_TIME ( 13, 14, 5.000000000000000000, #30 ) ;
#138 = PLANE ( 'NONE',  #10 ) ;
#139 = CC_DESIGN_PERSON_AND_ORGANIZATION_ASSIGNMENT ( #127, #160, ( #135 ) ) ;
#140 = DIRECTION ( 'NONE',  ( 0.000000000000000000, 0.000000000000000000, -1.000000000000000000 ) ) ;
#141 = AXIS2_PLACEMENT_3D ( 'NONE', #52, #163, #83 ) ;
#142 = PRODUCT_DEFINITION_FORMATION_WITH_SPECIFIED_SOURCE ( 'ANY', '', #135, .NOT_KNOWN. ) ;
#143 = LINE ( 'NONE', #105, #27 ) ;
#144 = APPROVAL_STATUS ( 'not_yet_approved' ) ;
#145 = APPLICATION_PROTOCOL_DEFINITION ( 'international standard', 'config_control_design', 1994, #20 ) ;
#146 = DATE_AND_TIME ( #147, #137 ) ;
#147 = CALENDAR_DATE ( 2022, 11, 3 ) ;
#148 = APPROVAL_STATUS ( 'not_yet_approved' ) ;
#149 = CIRCLE ( 'NONE', #166, 6.349999999999999645 ) ;
#150 = VERTEX_POINT ( 'NONE', #162 ) ;
#151 = ORIENTED_EDGE ( 'NONE', *, *, #87, .T. ) ;
#152 = DIRECTION ( 'NONE',  ( -1.000000000000000000, -0.000000000000000000, -0.000000000000000000 ) ) ;
#153 = FACE_OUTER_BOUND ( 'NONE', #100, .T. ) ;
#154 = CARTESIAN_POINT ( 'NONE',  ( 0.7500000000000000000, 0.000000000000000000, 0.000000000000000000 ) ) ;
#155 = DESIGN_CONTEXT ( 'detailed design', #56, 'design' ) ;
#156 = CARTESIAN_POINT ( 'NONE',  ( 0.7500000000000000000, 0.000000000000000000, 0.000000000000000000 ) ) ;
#157 = APPROVAL ( #148, 'UNSPECIFIED' ) ;
#158 = AXIS2_PLACEMENT_3D ( 'NONE', #175, #164, #107 ) ;
#159 = LINE ( 'NONE', #9, #170 ) ;
#160 = PERSON_AND_ORGANIZATION_ROLE ( 'design_owner' ) ;
#161 = LOCAL_TIME ( 13, 14, 5.000000000000000000, #17 ) ;
#162 = CARTESIAN_POINT ( 'NONE',  ( -0.7500000000000000000, 7.776507174585692163E-16, -6.349999999999999645 ) ) ;
#163 = DIRECTION ( 'NONE',  ( 0.000000000000000000, 0.000000000000000000, 1.000000000000000000 ) ) ;
#164 = DIRECTION ( 'NONE',  ( 1.000000000000000000, 0.000000000000000000, 0.000000000000000000 ) ) ;
#165 = PERSON_AND_ORGANIZATION ( #49, #31 ) ;
#166 = AXIS2_PLACEMENT_3D ( 'NONE', #34, #57, #51 ) ;
#167 = DATE_TIME_ROLE ( 'creation_date' ) ;
#168 = PERSON_AND_ORGANIZATION_ROLE ( 'design_supplier' ) ;
#169 = ORIENTED_EDGE ( 'NONE', *, *, #118, .F. ) ;
#170 = VECTOR ( 'NONE', #152, 1000.000000000000000 ) ;
#171 = ORIENTED_EDGE ( 'NONE', *, *, #4, .F. ) ;
#172 = CARTESIAN_POINT ( 'NONE',  ( 0.7500000000000000000, 0.000000000000000000, 0.000000000000000000 ) ) ;
#173 = CYLINDRICAL_SURFACE ( 'NONE', #109, 6.349999999999999645 ) ;
#174 = CC_DESIGN_DATE_AND_TIME_ASSIGNMENT ( #69, #44, ( #81 ) ) ;
#175 = CARTESIAN_POINT ( 'NONE',  ( -0.7500000000000000000, 0.000000000000000000, 0.000000000000000000 ) ) ;
ENDSEC;
END-ISO-10303-21;
