ISO-10303-21;
HEADER;
FILE_DESCRIPTION (( 'STEP AP203' ),
    '1' );
FILE_NAME ('4221-E0W.STEP',
    '2015-11-16T21:54:34',
    ( 'admin' ),
    ( '' ),
    'SwSTEP 2.0',
    'SolidWorks 2014',
    '' );
FILE_SCHEMA (( 'CONFIG_CONTROL_DESIGN' ));
ENDSEC;

DATA;
#1 = COORDINATED_UNIVERSAL_TIME_OFFSET ( 5, 0, .BEHIND. ) ;
#2 = FACE_OUTER_BOUND ( 'NONE', #106, .T. ) ;
#3 = VERTEX_POINT ( 'NONE', #312 ) ;
#4 = DESIGN_CONTEXT ( 'detailed design', #108, 'design' ) ;
#5 = ORIENTED_EDGE ( 'NONE', *, *, #262, .T. ) ;
#6 = DIRECTION ( 'NONE',  ( -1.000000000000000000, -1.224646799147353900E-016, -0.0000000000000000000 ) ) ;
#7 = CARTESIAN_POINT ( 'NONE',  ( -0.06889763779527564900, -6.448681471888103000E-017, 0.0000000000000000000 ) ) ;
#8 = EDGE_CURVE ( 'NONE', #3, #313, #317, .T. ) ;
#9 = CIRCLE ( 'NONE', #197, 0.4999999999999998300 ) ;
#10 = ADVANCED_BREP_SHAPE_REPRESENTATION ( '4221-E0W', ( #282, #296 ), #32 ) ;
#11 = PERSON_AND_ORGANIZATION ( #263, #180 ) ;
#12 = ADVANCED_FACE ( 'NONE', ( #49 ), #243, .T. ) ;
#13 = ORIENTED_EDGE ( 'NONE', *, *, #194, .F. ) ;
#14 = LINE ( 'NONE', #52, #170 ) ;
#15 = DIRECTION ( 'NONE',  ( 1.000000000000000000, 1.224646799147353900E-016, 0.0000000000000000000 ) ) ;
#16 = DIRECTION ( 'NONE',  ( 1.385205257280124200E-016, -1.000000000000000000, 0.0000000000000000000 ) ) ;
#17 = VERTEX_POINT ( 'NONE', #310 ) ;
#18 = AXIS2_PLACEMENT_3D ( 'NONE', #276, #78, #161 ) ;
#19 = ORIENTED_EDGE ( 'NONE', *, *, #132, .F. ) ;
#20 = SPHERICAL_SURFACE ( 'NONE', #115, 2.811023622047244400 ) ;
#21 = PERSON_AND_ORGANIZATION ( #263, #180 ) ;
#22 = SECURITY_CLASSIFICATION ( '', '', #155 ) ;
#23 = EDGE_LOOP ( 'NONE', ( #215, #238, #93 ) ) ;
#24 = ORIENTED_EDGE ( 'NONE', *, *, #33, .T. ) ;
#25 = PERSON_AND_ORGANIZATION ( #263, #180 ) ;
#26 = DIRECTION ( 'NONE',  ( 1.385205257280124200E-016, -1.000000000000000000, 0.0000000000000000000 ) ) ;
#27 = CC_DESIGN_DATE_AND_TIME_ASSIGNMENT ( #287, #43, ( #129 ) ) ;
#28 = EDGE_CURVE ( 'NONE', #289, #79, #298, .T. ) ;
#29 = DIRECTION ( 'NONE',  ( 0.0000000000000000000, 0.0000000000000000000, 1.000000000000000000 ) ) ;
#30 = ORIENTED_EDGE ( 'NONE', *, *, #200, .T. ) ;
#31 = DIRECTION ( 'NONE',  ( -1.000000000000000000, -1.224646799147353900E-016, -0.0000000000000000000 ) ) ;
#32 =( GEOMETRIC_REPRESENTATION_CONTEXT ( 3 ) GLOBAL_UNCERTAINTY_ASSIGNED_CONTEXT ( ( #330 ) ) GLOBAL_UNIT_ASSIGNED_CONTEXT ( ( #211, #47, #184 ) ) REPRESENTATION_CONTEXT ( 'NONE', 'WORKASPACE' ) );
#33 = EDGE_CURVE ( 'NONE', #278, #79, #118, .T. ) ;
#34 = ORIENTED_EDGE ( 'NONE', *, *, #228, .T. ) ;
#35 = ORIENTED_EDGE ( 'NONE', *, *, #60, .T. ) ;
#36 = PERSON_AND_ORGANIZATION_ROLE ( 'creator' ) ;
#37 = DIRECTION ( 'NONE',  ( 0.0000000000000000000, 0.0000000000000000000, -1.000000000000000000 ) ) ;
#38 = DATE_AND_TIME ( #301, #286 ) ;
#39 = CARTESIAN_POINT ( 'NONE',  ( 0.1124738658485554400, 0.4930402875867465100, 6.038002100437997600E-017 ) ) ;
#40 = CC_DESIGN_PERSON_AND_ORGANIZATION_ASSIGNMENT ( #160, #63, ( #84 ) ) ;
#41 = DIRECTION ( 'NONE',  ( -1.000000000000000000, -1.224646799147353900E-016, -0.0000000000000000000 ) ) ;
#42 = AXIS2_PLACEMENT_3D ( 'NONE', #189, #61, #192 ) ;
#43 = DATE_TIME_ROLE ( 'creation_date' ) ;
#44 = FACE_OUTER_BOUND ( 'NONE', #254, .T. ) ;
#45 = ORIENTED_EDGE ( 'NONE', *, *, #60, .F. ) ;
#46 = VECTOR ( 'NONE', #314, 39.37007874015748100 ) ;
#47 =( NAMED_UNIT ( * ) PLANE_ANGLE_UNIT ( ) SI_UNIT ( $, .RADIAN. ) );
#48 = LOCAL_TIME ( 16, 54, 34.00000000000000000, #92 ) ;
#49 = FACE_OUTER_BOUND ( 'NONE', #124, .T. ) ;
#50 = APPROVAL ( #316, 'UNSPECIFIED' ) ;
#51 = DIRECTION ( 'NONE',  ( -1.000000000000000000, -1.224646799147353900E-016, -0.0000000000000000000 ) ) ;
#52 = CARTESIAN_POINT ( 'NONE',  ( 0.1124738658485555800, -0.4930402875867466700, 0.0000000000000000000 ) ) ;
#53 = DIRECTION ( 'NONE',  ( -1.000000000000000000, -1.224646799147353900E-016, -0.0000000000000000000 ) ) ;
#54 = EDGE_LOOP ( 'NONE', ( #259, #19, #111 ) ) ;
#55 = DATE_TIME_ROLE ( 'classification_date' ) ;
#56 = DIRECTION ( 'NONE',  ( 1.195183497228115500E-016, -1.000000000000000000, 0.0000000000000000000 ) ) ;
#57 = APPROVAL ( #198, 'UNSPECIFIED' ) ;
#58 = DIRECTION ( 'NONE',  ( 0.0000000000000000000, -1.000000000000000000, -1.224646799147353200E-016 ) ) ;
#59 = CARTESIAN_POINT ( 'NONE',  ( 0.1055141534353020400, -4.312753053247267900E-017, 0.0000000000000000000 ) ) ;
#60 = EDGE_CURVE ( 'NONE', #244, #229, #128, .T. ) ;
#61 = DIRECTION ( 'NONE',  ( -1.000000000000000000, -1.224646799147353900E-016, -0.0000000000000000000 ) ) ;
#62 = CARTESIAN_POINT ( 'NONE',  ( -0.04854975619868859300, -6.199491791221205500E-017, 0.0000000000000000000 ) ) ;
#63 = PERSON_AND_ORGANIZATION_ROLE ( 'design_supplier' ) ;
#64 = APPROVAL_PERSON_ORGANIZATION ( #11, #57, #156 ) ;
#65 = ADVANCED_FACE ( 'NONE', ( #280 ), #110, .T. ) ;
#66 = AXIS2_PLACEMENT_3D ( 'NONE', #181, #206, #71 ) ;
#67 = DIRECTION ( 'NONE',  ( -1.000000000000000000, -1.224646799147353900E-016, -0.0000000000000000000 ) ) ;
#68 = CALENDAR_DATE ( 2015, 16, 11 ) ;
#69 = ORIENTED_EDGE ( 'NONE', *, *, #28, .F. ) ;
#70 = LINE ( 'NONE', #74, #83 ) ;
#71 = DIRECTION ( 'NONE',  ( 1.365923996832131900E-016, -1.000000000000000000, 0.0000000000000000000 ) ) ;
#72 = CARTESIAN_POINT ( 'NONE',  ( -0.04159004378543517500, -0.4999999999999999400, 6.123233995736764800E-017 ) ) ;
#73 = CARTESIAN_POINT ( 'NONE',  ( -0.06889763779527564900, 4.761176039992142000E-017, -3.913900831382039300E-031 ) ) ;
#74 = CARTESIAN_POINT ( 'NONE',  ( -0.06889763779527571800, 0.4999999999999997800, 6.123233995736764800E-017 ) ) ;
#75 = CIRCLE ( 'NONE', #232, 0.4999999999999998300 ) ;
#76 = SPHERICAL_SURFACE ( 'NONE', #281, 2.811023622047244400 ) ;
#77 = DATE_AND_TIME ( #321, #138 ) ;
#78 = DIRECTION ( 'NONE',  ( 8.551662891793922500E-031, -6.982962677686266700E-015, -1.000000000000000000 ) ) ;
#79 = VERTEX_POINT ( 'NONE', #73 ) ;
#80 = DIRECTION ( 'NONE',  ( 1.212054600120109100E-016, -1.000000000000000000, 0.0000000000000000000 ) ) ;
#81 = FACE_OUTER_BOUND ( 'NONE', #187, .T. ) ;
#82 = ORIENTED_EDGE ( 'NONE', *, *, #132, .T. ) ;
#83 = VECTOR ( 'NONE', #275, 39.37007874015748100 ) ;
#84 = PRODUCT_DEFINITION_FORMATION_WITH_SPECIFIED_SOURCE ( 'ANY', '', #221, .NOT_KNOWN. ) ;
#85 = EDGE_CURVE ( 'NONE', #278, #289, #152, .T. ) ;
#86 = EDGE_CURVE ( 'NONE', #329, #130, #9, .T. ) ;
#87 = ADVANCED_FACE ( 'NONE', ( #44 ), #146, .T. ) ;
#88 = ORIENTED_EDGE ( 'NONE', *, *, #262, .F. ) ;
#89 = DATE_AND_TIME ( #249, #271 ) ;
#90 = DIRECTION ( 'NONE',  ( 1.224646799147353900E-016, -1.000000000000000000, 0.0000000000000000000 ) ) ;
#91 = APPLICATION_PROTOCOL_DEFINITION ( 'international standard', 'config_control_design', 1994, #137 ) ;
#92 = COORDINATED_UNIVERSAL_TIME_OFFSET ( 5, 0, .BEHIND. ) ;
#93 = ORIENTED_EDGE ( 'NONE', *, *, #8, .F. ) ;
#94 = DIRECTION ( 'NONE',  ( -1.000000000000000000, -1.224646799147353900E-016, -0.0000000000000000000 ) ) ;
#95 = AXIS2_PLACEMENT_3D ( 'NONE', #98, #96, #235 ) ;
#96 = DIRECTION ( 'NONE',  ( 1.000000000000000000, 1.224646799147353900E-016, 0.0000000000000000000 ) ) ;
#97 = EDGE_CURVE ( 'NONE', #278, #329, #218, .T. ) ;
#98 = CARTESIAN_POINT ( 'NONE',  ( -0.04159004378543523100, -6.114259895922438300E-017, 0.0000000000000000000 ) ) ;
#99 = AXIS2_PLACEMENT_3D ( 'NONE', #127, #292, #58 ) ;
#100 = EDGE_LOOP ( 'NONE', ( #250, #159, #299, #88 ) ) ;
#101 = CIRCLE ( 'NONE', #219, 0.4930402875867464000 ) ;
#102 = CARTESIAN_POINT ( 'NONE',  ( -0.04854975619868885700, 0.4930402875867485000, 6.038002100438022200E-017 ) ) ;
#103 = DIRECTION ( 'NONE',  ( 0.0000000000000000000, -1.000000000000000000, 6.860497997771530800E-015 ) ) ;
#104 = CC_DESIGN_PERSON_AND_ORGANIZATION_ASSIGNMENT ( #25, #36, ( #84 ) ) ;
#105 = PERSON_AND_ORGANIZATION ( #263, #180 ) ;
#106 = EDGE_LOOP ( 'NONE', ( #69, #169, #24 ) ) ;
#107 = CARTESIAN_POINT ( 'NONE',  ( -0.04159004378543529300, 0.4999999999999997800, 0.0000000000000000000 ) ) ;
#108 = APPLICATION_CONTEXT ( 'configuration controlled 3d designs of mechanical parts and assemblies' ) ;
#109 = EDGE_CURVE ( 'NONE', #130, #329, #75, .T. ) ;
#110 = CONICAL_SURFACE ( 'NONE', #157, 0.4930402875867466200, 0.7853981633974385100 ) ;
#111 = ORIENTED_EDGE ( 'NONE', *, *, #8, .T. ) ;
#112 = CARTESIAN_POINT ( 'NONE',  ( 0.1055141534353021100, -0.5000000000000000000, 0.0000000000000000000 ) ) ;
#113 = CARTESIAN_POINT ( 'NONE',  ( -0.04159004378543529300, 0.4999999999999997800, 0.0000000000000000000 ) ) ;
#114 = DIRECTION ( 'NONE',  ( 1.212054600120109100E-016, -1.000000000000000000, 0.0000000000000000000 ) ) ;
#115 = AXIS2_PLACEMENT_3D ( 'NONE', #285, #208, #203 ) ;
#116 = ADVANCED_FACE ( 'NONE', ( #81 ), #326, .T. ) ;
#117 = CARTESIAN_POINT ( 'NONE',  ( 0.1124738658485555100, -4.227521157948498200E-017, 0.0000000000000000000 ) ) ;
#118 = CIRCLE ( 'NONE', #188, 5.905511811023623100 ) ;
#119 = DIRECTION ( 'NONE',  ( -1.000000000000000000, -1.224646799147353900E-016, -0.0000000000000000000 ) ) ;
#120 = CARTESIAN_POINT ( 'NONE',  ( -0.04854975619868880100, -0.4930402875867486700, 0.0000000000000000000 ) ) ;
#121 = ORIENTED_EDGE ( 'NONE', *, *, #194, .T. ) ;
#122 = PERSON_AND_ORGANIZATION_ROLE ( 'design_owner' ) ;
#123 = APPROVAL_PERSON_ORGANIZATION ( #279, #50, #247 ) ;
#124 = EDGE_LOOP ( 'NONE', ( #283, #307, #121, #324 ) ) ;
#125 = DIRECTION ( 'NONE',  ( -1.000000000000000000, -1.224646799147353900E-016, -0.0000000000000000000 ) ) ;
#126 = COORDINATED_UNIVERSAL_TIME_OFFSET ( 5, 0, .BEHIND. ) ;
#127 = CARTESIAN_POINT ( 'NONE',  ( 5.836613296306028400, 0.003218283617082169400, 3.941260730407238600E-019 ) ) ;
#128 = CIRCLE ( 'NONE', #66, 0.4999999999999999400 ) ;
#129 = PRODUCT_DEFINITION ( 'UNKNOWN', '', #84, #4 ) ;
#130 = VERTEX_POINT ( 'NONE', #113 ) ;
#131 = FACE_OUTER_BOUND ( 'NONE', #23, .T. ) ;
#132 = EDGE_CURVE ( 'NONE', #3, #17, #212, .T. ) ;
#133 = CARTESIAN_POINT ( 'NONE',  ( -0.06889763779527559300, -0.4999999999999999400, 0.0000000000000000000 ) ) ;
#134 = DIRECTION ( 'NONE',  ( 1.224646799147353900E-016, -1.000000000000000000, 0.0000000000000000000 ) ) ;
#135 = CC_DESIGN_PERSON_AND_ORGANIZATION_ASSIGNMENT ( #21, #183, ( #22 ) ) ;
#136 = EDGE_CURVE ( 'NONE', #17, #3, #185, .T. ) ;
#137 = APPLICATION_CONTEXT ( 'configuration controlled 3d designs of mechanical parts and assemblies' ) ;
#138 = LOCAL_TIME ( 16, 54, 34.00000000000000000, #269 ) ;
#139 = ORIENTED_EDGE ( 'NONE', *, *, #97, .F. ) ;
#140 = LINE ( 'NONE', #107, #230 ) ;
#141 = DIRECTION ( 'NONE',  ( 1.195183497228115500E-016, -1.000000000000000000, 0.0000000000000000000 ) ) ;
#142 = CC_DESIGN_APPROVAL ( #315, ( #129 ) ) ;
#143 = CARTESIAN_POINT ( 'NONE',  ( 5.836613296306028400, 6.584180515979884500E-016, 0.0000000000000000000 ) ) ;
#144 = CC_DESIGN_APPROVAL ( #57, ( #22 ) ) ;
#145 = DIRECTION ( 'NONE',  ( -1.000000000000000000, -1.224646799147353900E-016, -0.0000000000000000000 ) ) ;
#146 = CONICAL_SURFACE ( 'NONE', #239, 0.4999999999999998300, 0.7853981633974557200 ) ;
#147 = ADVANCED_FACE ( 'NONE', ( #2 ), #270, .T. ) ;
#148 = CC_DESIGN_PERSON_AND_ORGANIZATION_ASSIGNMENT ( #204, #122, ( #221 ) ) ;
#149 = DIRECTION ( 'NONE',  ( 0.7071067811865421300, 0.7071067811865527900, 0.0000000000000000000 ) ) ;
#150 = ORIENTED_EDGE ( 'NONE', *, *, #28, .T. ) ;
#151 = FACE_OUTER_BOUND ( 'NONE', #178, .T. ) ;
#152 = CIRCLE ( 'NONE', #172, 0.4930402875867464000 ) ;
#153 = AXIS2_PLACEMENT_3D ( 'NONE', #237, #119, #303 ) ;
#154 = CARTESIAN_POINT ( 'NONE',  ( 0.06889763779527564900, 6.448681471888132100E-016, -4.444171266601565000E-030 ) ) ;
#155 = SECURITY_CLASSIFICATION_LEVEL ( 'unclassified' ) ;
#156 = APPROVAL_ROLE ( '' ) ;
#157 = AXIS2_PLACEMENT_3D ( 'NONE', #202, #67, #26 ) ;
#158 = DIRECTION ( 'NONE',  ( 1.943667760198102900E-016, -1.000000000000000000, 6.982962677686266700E-015 ) ) ;
#159 = ORIENTED_EDGE ( 'NONE', *, *, #97, .T. ) ;
#160 = PERSON_AND_ORGANIZATION ( #263, #180 ) ;
#161 = DIRECTION ( 'NONE',  ( 0.0000000000000000000, 1.000000000000000000, -6.982962677686266700E-015 ) ) ;
#162 = DIRECTION ( 'NONE',  ( -1.000000000000000000, -1.224646799147353900E-016, -0.0000000000000000000 ) ) ;
#163 = CC_DESIGN_APPROVAL ( #50, ( #84 ) ) ;
#164 = CARTESIAN_POINT ( 'NONE',  ( 2.879921259842519900, 1.161244809348977000E-015, -5.646117586432442800E-030 ) ) ;
#165 = APPLICATION_PROTOCOL_DEFINITION ( 'international standard', 'config_control_design', 1994, #108 ) ;
#166 = CARTESIAN_POINT ( 'NONE',  ( 5.836613296306028400, -0.003218283617080852700, 0.0000000000000000000 ) ) ;
#167 = EDGE_CURVE ( 'NONE', #289, #278, #101, .T. ) ;
#168 = DIRECTION ( 'NONE',  ( 1.000000000000000000, 0.0000000000000000000, 0.0000000000000000000 ) ) ;
#169 = ORIENTED_EDGE ( 'NONE', *, *, #167, .T. ) ;
#170 = VECTOR ( 'NONE', #309, 39.37007874015748900 ) ;
#171 = APPROVAL_DATE_TIME ( #89, #50 ) ;
#172 = AXIS2_PLACEMENT_3D ( 'NONE', #62, #53, #114 ) ;
#173 = APPROVAL_PERSON_ORGANIZATION ( #105, #315, #191 ) ;
#174 = CARTESIAN_POINT ( 'NONE',  ( -0.04159004378543523100, -6.114259895922438300E-017, 0.0000000000000000000 ) ) ;
#175 = AXIS2_PLACEMENT_3D ( 'NONE', #164, #213, #103 ) ;
#176 = EDGE_CURVE ( 'NONE', #229, #244, #284, .T. ) ;
#177 = VECTOR ( 'NONE', #233, 39.37007874015748100 ) ;
#178 = EDGE_LOOP ( 'NONE', ( #35, #236, #327, #13 ) ) ;
#179 = AXIS2_PLACEMENT_3D ( 'NONE', #242, #125, #16 ) ;
#180 = ORGANIZATION ( 'UNSPECIFIED', 'UNSPECIFIED', '' ) ;
#181 = CARTESIAN_POINT ( 'NONE',  ( 0.1055141534353020400, -4.312753053247267900E-017, 0.0000000000000000000 ) ) ;
#182 = CC_DESIGN_PERSON_AND_ORGANIZATION_ASSIGNMENT ( #294, #227, ( #129 ) ) ;
#183 = PERSON_AND_ORGANIZATION_ROLE ( 'classification_officer' ) ;
#184 =( NAMED_UNIT ( * ) SI_UNIT ( $, .STERADIAN. ) SOLID_ANGLE_UNIT ( ) );
#185 = CIRCLE ( 'NONE', #234, 0.4930402875867466200 ) ;
#186 = EDGE_CURVE ( 'NONE', #17, #313, #223, .T. ) ;
#187 = EDGE_LOOP ( 'NONE', ( #266, #150, #319 ) ) ;
#188 = AXIS2_PLACEMENT_3D ( 'NONE', #166, #37, #302 ) ;
#189 = CARTESIAN_POINT ( 'NONE',  ( -0.06889763779527564900, -6.448681471888103000E-017, 0.0000000000000000000 ) ) ;
#190 = CC_DESIGN_DATE_AND_TIME_ASSIGNMENT ( #38, #55, ( #22 ) ) ;
#191 = APPROVAL_ROLE ( '' ) ;
#192 = DIRECTION ( 'NONE',  ( 1.195183497228115500E-016, -1.000000000000000000, 0.0000000000000000000 ) ) ;
#193 = AXIS2_PLACEMENT_3D ( 'NONE', #59, #162, #251 ) ;
#194 = EDGE_CURVE ( 'NONE', #244, #329, #293, .T. ) ;
#195 = CARTESIAN_POINT ( 'NONE',  ( -0.04159004378543523100, -6.114259895922438300E-017, 0.0000000000000000000 ) ) ;
#196 = ORIENTED_EDGE ( 'NONE', *, *, #228, .F. ) ;
#197 = AXIS2_PLACEMENT_3D ( 'NONE', #174, #207, #141 ) ;
#198 = APPROVAL_STATUS ( 'not_yet_approved' ) ;
#199 = ADVANCED_FACE ( 'NONE', ( #131 ), #20, .F. ) ;
#200 = EDGE_CURVE ( 'NONE', #3, #244, #14, .T. ) ;
#201 = APPROVAL_STATUS ( 'not_yet_approved' ) ;
#202 = CARTESIAN_POINT ( 'NONE',  ( 0.1124738658485555100, -4.227521157948498200E-017, 0.0000000000000000000 ) ) ;
#203 = DIRECTION ( 'NONE',  ( 1.943667760198102900E-016, -1.000000000000000000, 6.982962677686266700E-015 ) ) ;
#204 = PERSON_AND_ORGANIZATION ( #263, #180 ) ;
#205 = AXIS2_PLACEMENT_3D ( 'NONE', #325, #41, #134 ) ;
#206 = DIRECTION ( 'NONE',  ( -1.000000000000000000, -1.224646799147353900E-016, -0.0000000000000000000 ) ) ;
#207 = DIRECTION ( 'NONE',  ( -1.000000000000000000, -1.224646799147353900E-016, -0.0000000000000000000 ) ) ;
#208 = DIRECTION ( 'NONE',  ( -8.551662891793922500E-031, 6.982962677686266700E-015, 1.000000000000000000 ) ) ;
#209 = ORIENTED_EDGE ( 'NONE', *, *, #167, .F. ) ;
#210 = CARTESIAN_POINT ( 'NONE',  ( 0.0000000000000000000, 0.0000000000000000000, 0.0000000000000000000 ) ) ;
#211 =( CONVERSION_BASED_UNIT ( 'INCH', #268 ) LENGTH_UNIT ( ) NAMED_UNIT ( #246 ) );
#212 = CIRCLE ( 'NONE', #179, 0.4930402875867466200 ) ;
#213 = DIRECTION ( 'NONE',  ( -8.401686913527736900E-031, 6.860497997771531600E-015, 1.000000000000000000 ) ) ;
#214 = EDGE_CURVE ( 'NONE', #229, #130, #70, .T. ) ;
#215 = ORIENTED_EDGE ( 'NONE', *, *, #136, .F. ) ;
#216 = CYLINDRICAL_SURFACE ( 'NONE', #42, 0.4999999999999998300 ) ;
#217 = AXIS2_PLACEMENT_3D ( 'NONE', #7, #145, #56 ) ;
#218 = LINE ( 'NONE', #72, #177 ) ;
#219 = AXIS2_PLACEMENT_3D ( 'NONE', #311, #6, #80 ) ;
#220 = ADVANCED_FACE ( 'NONE', ( #151 ), #216, .T. ) ;
#221 = PRODUCT ( '4221-E0W', '4221-E0W', '', ( #265 ) ) ;
#222 = ORIENTED_EDGE ( 'NONE', *, *, #136, .T. ) ;
#223 = CIRCLE ( 'NONE', #175, 2.811023622047244400 ) ;
#224 = COORDINATED_UNIVERSAL_TIME_OFFSET ( 5, 0, .BEHIND. ) ;
#225 = DIRECTION ( 'NONE',  ( 1.195183497228115500E-016, -1.000000000000000000, 0.0000000000000000000 ) ) ;
#226 = EDGE_LOOP ( 'NONE', ( #196, #222, #30, #291 ) ) ;
#227 = PERSON_AND_ORGANIZATION_ROLE ( 'creator' ) ;
#228 = EDGE_CURVE ( 'NONE', #17, #229, #255, .T. ) ;
#229 = VERTEX_POINT ( 'NONE', #322 ) ;
#230 = VECTOR ( 'NONE', #149, 39.37007874015748900 ) ;
#231 = CONICAL_SURFACE ( 'NONE', #153, 0.4930402875867466200, 0.7853981633974385100 ) ;
#232 = AXIS2_PLACEMENT_3D ( 'NONE', #240, #253, #225 ) ;
#233 = DIRECTION ( 'NONE',  ( 0.7071067811865424700, -0.7071067811865526800, 8.659560562354997000E-017 ) ) ;
#234 = AXIS2_PLACEMENT_3D ( 'NONE', #117, #31, #323 ) ;
#235 = DIRECTION ( 'NONE',  ( -1.195183497228115500E-016, 1.000000000000000000, 0.0000000000000000000 ) ) ;
#236 = ORIENTED_EDGE ( 'NONE', *, *, #214, .T. ) ;
#237 = CARTESIAN_POINT ( 'NONE',  ( 0.1124738658485555100, -4.227521157948498200E-017, 0.0000000000000000000 ) ) ;
#238 = ORIENTED_EDGE ( 'NONE', *, *, #186, .T. ) ;
#239 = AXIS2_PLACEMENT_3D ( 'NONE', #195, #15, #256 ) ;
#240 = CARTESIAN_POINT ( 'NONE',  ( -0.04159004378543523100, -6.114259895922438300E-017, 0.0000000000000000000 ) ) ;
#241 = ADVANCED_FACE ( 'NONE', ( #245 ), #300, .T. ) ;
#242 = CARTESIAN_POINT ( 'NONE',  ( 0.1124738658485555100, -4.227521157948498200E-017, 0.0000000000000000000 ) ) ;
#243 = CYLINDRICAL_SURFACE ( 'NONE', #217, 0.4999999999999998300 ) ;
#244 = VERTEX_POINT ( 'NONE', #112 ) ;
#245 = FACE_OUTER_BOUND ( 'NONE', #100, .T. ) ;
#246 = DIMENSIONAL_EXPONENTS ( 1.000000000000000000, 0.0000000000000000000, 0.0000000000000000000, 0.0000000000000000000, 0.0000000000000000000, 0.0000000000000000000, 0.0000000000000000000 ) ;
#247 = APPROVAL_ROLE ( '' ) ;
#248 = APPROVAL_DATE_TIME ( #77, #57 ) ;
#249 = CALENDAR_DATE ( 2015, 16, 11 ) ;
#250 = ORIENTED_EDGE ( 'NONE', *, *, #85, .F. ) ;
#251 = DIRECTION ( 'NONE',  ( 1.365923996832131900E-016, -1.000000000000000000, 0.0000000000000000000 ) ) ;
#252 = AXIS2_PLACEMENT_3D ( 'NONE', #143, #51, #90 ) ;
#253 = DIRECTION ( 'NONE',  ( -1.000000000000000000, -1.224646799147353900E-016, -0.0000000000000000000 ) ) ;
#254 = EDGE_LOOP ( 'NONE', ( #139, #209, #5, #267 ) ) ;
#255 = LINE ( 'NONE', #39, #46 ) ;
#256 = DIRECTION ( 'NONE',  ( -1.195183497228115500E-016, 1.000000000000000000, 0.0000000000000000000 ) ) ;
#257 = LOCAL_TIME ( 16, 54, 34.00000000000000000, #224 ) ;
#258 = SHAPE_DEFINITION_REPRESENTATION ( #272, #10 ) ;
#259 = ORIENTED_EDGE ( 'NONE', *, *, #186, .F. ) ;
#260 = PRODUCT_RELATED_PRODUCT_CATEGORY ( 'detail', '', ( #221 ) ) ;
#261 = FACE_OUTER_BOUND ( 'NONE', #226, .T. ) ;
#262 = EDGE_CURVE ( 'NONE', #289, #130, #140, .T. ) ;
#263 = PERSON ( 'UNSPECIFIED', 'UNSPECIFIED', 'UNSPECIFIED', ('UNSPECIFIED'), ('UNSPECIFIED'), ('UNSPECIFIED') ) ;
#264 = CALENDAR_DATE ( 2015, 16, 11 ) ;
#265 = MECHANICAL_CONTEXT ( 'NONE', #137, 'mechanical' ) ;
#266 = ORIENTED_EDGE ( 'NONE', *, *, #85, .T. ) ;
#267 = ORIENTED_EDGE ( 'NONE', *, *, #109, .T. ) ;
#268 = LENGTH_MEASURE_WITH_UNIT ( LENGTH_MEASURE( 0.02539999999999999900 ), #306 );
#269 = COORDINATED_UNIVERSAL_TIME_OFFSET ( 5, 0, .BEHIND. ) ;
#270 = TOROIDAL_SURFACE ( 'NONE', #205, 0.003218283617081511100, 5.905511811023623100 ) ;
#271 = LOCAL_TIME ( 16, 54, 34.00000000000000000, #1 ) ;
#272 = PRODUCT_DEFINITION_SHAPE ( 'NONE', 'NONE',  #129 ) ;
#273 = FACE_OUTER_BOUND ( 'NONE', #54, .T. ) ;
#274 = CC_DESIGN_SECURITY_CLASSIFICATION ( #22, ( #84 ) ) ;
#275 = DIRECTION ( 'NONE',  ( -1.000000000000000000, -1.224646799147353900E-016, -0.0000000000000000000 ) ) ;
#276 = CARTESIAN_POINT ( 'NONE',  ( 2.879921259842519900, 1.161244809348977000E-015, -5.646117586432442800E-030 ) ) ;
#277 = ORIENTED_EDGE ( 'NONE', *, *, #200, .F. ) ;
#278 = VERTEX_POINT ( 'NONE', #120 ) ;
#279 = PERSON_AND_ORGANIZATION ( #263, #180 ) ;
#280 = FACE_OUTER_BOUND ( 'NONE', #308, .T. ) ;
#281 = AXIS2_PLACEMENT_3D ( 'NONE', #288, #305, #158 ) ;
#282 = MANIFOLD_SOLID_BREP ( '4221-001-1-solid1', #304 ) ;
#283 = ORIENTED_EDGE ( 'NONE', *, *, #214, .F. ) ;
#284 = CIRCLE ( 'NONE', #193, 0.4999999999999999400 ) ;
#285 = CARTESIAN_POINT ( 'NONE',  ( 2.879921259842519900, 1.161244809348977000E-015, -5.646117586432442800E-030 ) ) ;
#286 = LOCAL_TIME ( 16, 54, 34.00000000000000000, #126 ) ;
#287 = DATE_AND_TIME ( #264, #257 ) ;
#288 = CARTESIAN_POINT ( 'NONE',  ( 2.879921259842519900, 1.161244809348977000E-015, -5.646117586432442800E-030 ) ) ;
#289 = VERTEX_POINT ( 'NONE', #102 ) ;
#290 = ADVANCED_FACE ( 'NONE', ( #261 ), #231, .T. ) ;
#291 = ORIENTED_EDGE ( 'NONE', *, *, #176, .F. ) ;
#292 = DIRECTION ( 'NONE',  ( 1.499759782661858700E-032, -1.224646799147353200E-016, 1.000000000000000000 ) ) ;
#293 = LINE ( 'NONE', #133, #320 ) ;
#294 = PERSON_AND_ORGANIZATION ( #263, #180 ) ;
#295 = DATE_AND_TIME ( #68, #48 ) ;
#296 = AXIS2_PLACEMENT_3D ( 'NONE', #210, #29, #168 ) ;
#297 = CARTESIAN_POINT ( 'NONE',  ( -0.04159004378543517500, -0.4999999999999999400, 6.123233995736764800E-017 ) ) ;
#298 = CIRCLE ( 'NONE', #99, 5.905511811023623100 ) ;
#299 = ORIENTED_EDGE ( 'NONE', *, *, #86, .T. ) ;
#300 = CONICAL_SURFACE ( 'NONE', #95, 0.4999999999999998300, 0.7853981633974557200 ) ;
#301 = CALENDAR_DATE ( 2015, 16, 11 ) ;
#302 = DIRECTION ( 'NONE',  ( -1.000000000000000000, 0.0000000000000000000, 0.0000000000000000000 ) ) ;
#303 = DIRECTION ( 'NONE',  ( 1.385205257280124200E-016, -1.000000000000000000, 0.0000000000000000000 ) ) ;
#304 = CLOSED_SHELL ( 'NONE', ( #199, #65, #220, #241, #116, #147, #87, #12, #290, #318 ) ) ;
#305 = DIRECTION ( 'NONE',  ( -8.551662891793922500E-031, 6.982962677686266700E-015, 1.000000000000000000 ) ) ;
#306 =( LENGTH_UNIT ( ) NAMED_UNIT ( * ) SI_UNIT ( $, .METRE. ) );
#307 = ORIENTED_EDGE ( 'NONE', *, *, #176, .T. ) ;
#308 = EDGE_LOOP ( 'NONE', ( #82, #34, #45, #277 ) ) ;
#309 = DIRECTION ( 'NONE',  ( -0.7071067811865542300, -0.7071067811865405800, 0.0000000000000000000 ) ) ;
#310 = CARTESIAN_POINT ( 'NONE',  ( 0.1124738658485554400, 0.4930402875867465100, 6.080618048087381200E-017 ) ) ;
#311 = CARTESIAN_POINT ( 'NONE',  ( -0.04854975619868859300, -6.199491791221205500E-017, 0.0000000000000000000 ) ) ;
#312 = CARTESIAN_POINT ( 'NONE',  ( 0.1124738658485555800, -0.4930402875867466700, 0.0000000000000000000 ) ) ;
#313 = VERTEX_POINT ( 'NONE', #154 ) ;
#314 = DIRECTION ( 'NONE',  ( -0.7071067811865545700, 0.7071067811865404700, 8.659560562354847800E-017 ) ) ;
#315 = APPROVAL ( #201, 'UNSPECIFIED' ) ;
#316 = APPROVAL_STATUS ( 'not_yet_approved' ) ;
#317 = CIRCLE ( 'NONE', #18, 2.811023622047244400 ) ;
#318 = ADVANCED_FACE ( 'NONE', ( #273 ), #76, .F. ) ;
#319 = ORIENTED_EDGE ( 'NONE', *, *, #33, .F. ) ;
#320 = VECTOR ( 'NONE', #94, 39.37007874015748100 ) ;
#321 = CALENDAR_DATE ( 2015, 16, 11 ) ;
#322 = CARTESIAN_POINT ( 'NONE',  ( 0.1055141534353019700, 0.4999999999999999400, 6.123233995736766000E-017 ) ) ;
#323 = DIRECTION ( 'NONE',  ( 1.385205257280124200E-016, -1.000000000000000000, 0.0000000000000000000 ) ) ;
#324 = ORIENTED_EDGE ( 'NONE', *, *, #109, .F. ) ;
#325 = CARTESIAN_POINT ( 'NONE',  ( 5.836613296306028400, 6.584180515979884500E-016, 0.0000000000000000000 ) ) ;
#326 = TOROIDAL_SURFACE ( 'NONE', #252, 0.003218283617081511100, 5.905511811023623100 ) ;
#327 = ORIENTED_EDGE ( 'NONE', *, *, #86, .F. ) ;
#328 = APPROVAL_DATE_TIME ( #295, #315 ) ;
#329 = VERTEX_POINT ( 'NONE', #297 ) ;
#330 = UNCERTAINTY_MEASURE_WITH_UNIT (LENGTH_MEASURE( 1.000000000000000100E-005 ), #211, 'distance_accuracy_value', 'NONE');
ENDSEC;
END-ISO-10303-21;
